Oops, an error
Loading. Please wait.

I Dont Want To intro tab

91 views 1 this week
1 commentread comment
1 2 3 4 5
3 more votes to show rating
add to favorites
×
Save as Personal and add changes to this tab that will be seen only by you. Learn more ›
×
You can save this tab as Personal to edit and correct it or add notes. All changes will be seen only by you. Learn more »
launch autoscroll
font size
0
reset
how to read this tab
guitar tuner
edit
Autoscroll
slow
fast
+/-
esc
set tempo
stop
So this is something I figured up by ear.
Since Julia plays this on the uke, it isn't exactly the same haha.
But I figured its close enough for the people that don't have a uke (I don't)

Capo: 6 (to help with the tension of the strings) 


[Progression 1]

e|---------------------------------------------------------------------------|
B|--------2-------1-------2-------2------------------------------------------|
G|------3---3---2---2---1---1---3---3----------------------------------------|
D|----3-------3-------3-------4--------------repeat as needed----------------|
A|---------------------------------------------2x in verse-------------------|
E|---------------------------------------------------------------------------|


[Progression 2]

e|---------------------------------------------------------------------------|
B|--------2-------1-------2-------2-------4-------4-------2-------1----------|
G|------3---3---2---2---1---1---3---3---3---3---3---3---3---3---2---2--------|
D|----3-------3-------3-------4-------4-------4-------4-------3--------------|
A|---------------------------------------------------------------------------|
E|---------------------------------------------------------------------------|

and repeat.


Again, this is how I play it
it might not be correct 100%
But its close enough to what I feel she is playing.
Any suggestions, comments, or corrections comment or email at
maxryanhernandez@gmail.com
Suggest correction
Creating personal tab
Creating personal tab
You can edit any tab online and save it as your Personal.

You can edit, replace or remove any tab part or add personal notes – all changes will be seen only by you.

Personal tabs can be accessed anytime from any device, even offline.
Learn more »
Give kudos to tab author, rate the tab!
1 2 3 4 5
comments
print report bad tab
1 comment total.
0 reply
willowmouth [tm] 7,463 Jul 27, 2016 04:14 AM

e|-------------------------------------------|
B|--------2---------1-------2-------2--------|
G|------3---3\2---2---2---1---1---3---3------|
D|----3---------3-------3-------4------------|
A|-------------------------------------------|
E|-------------------------------------------|

guest
You may want to rate the tab now too:
select rating
Wanna post a correction for this tab? Suggest correction