Oops, an error
Loading. Please wait.

Lullaby Tab

4,401 views 9 this week
no commentswrite comment
1 2 3 4 5
x 4
add to favorites
launch autoscroll
font size
0
reset
how to read this tab
guitar tuner
Autoscroll
slow
fast
+/-
esc
set tempo
stop
Help us to improve Ultimate-Guitar.com Take our survey!
×
Author
Capo
5th fret
-------------------------------------------------------------------------------
                             Lullaby – Julia Nunes
-------------------------------------------------------------------------------
Tabbed by: Neil Wicker
Email: wicker101@hotmail.co.uk  

Tuning: Standard

Capo 5

These are the finger picking parts for each chord

   A
e|--------0-----------0-----------0-----------0------|
B|-----2-----2-----2-----2-----2-----2-----2-----2---|
G|--2-----------2-----------2-----------2------------|
D|---------------------------------------------------|
A|---------------------------------------------------|
E|---------------------------------------------------|

   E
e|--------0-----------0-----------0-----------0------|
B|-----0-----0-----0-----0-----0-----0-----0-----0---|
G|--1-----------1-----------1-----------1------------|
D|---------------------------------------------------|
A|---------------------------------------------------|
E|---------------------------------------------------|

   D
e|--------2-----------2-----------2-----------2------|
B|-----3-----3-----3-----3-----3-----3-----3-----3---|
G|--2-----------2-----------2-----------2------------|
D|---------------------------------------------------|
A|---------------------------------------------------|
E|---------------------------------------------------|

   A*
e|--------0-----------0-----|
B|-----2-----2-----2-----2--|
G|--2-----------2-----------|
D|--------------------------|
A|--------------------------|
E|--------------------------|

   E*
e|--------0-----------0-----|
B|-----0-----0-----0-----0--|
G|--1-----------1-----------|
D|--------------------------|
A|--------------------------|
E|--------------------------|


Intro: A 

(first verse using the picking patterns above) 

A     E
Baby, sing me to sleep.
      D                    A*           E*   
Painful memories when you say that you need me.
    A            E
You save me from leaving things that I might need,
        D                 A*        E*
but the missing piece is out of my reach.


    D         E               A           E        D
but I don't mind if you can't be with me all the time.
      D        E                 A          E         D
So be on your way. No, that is not what I wanted to say.
        D                  E      A
I just want you, No, I need you to stay.

A      E
Baby, sing me to sleep.
     D                    A            E
Broken melodies when you say that you love me.
A           E
Well, maybe I need to guarantee 
  D
'cause the way you speak,
       A       E
you're scaring me.

    D         E               A           E        D
but I don't mind if you can't be with me all the time.
      D        E                 A          E         D
So be on your way. No, that is not what I wanted to say.
        D                  E      A
I just want you, No, I need you to stay.


      D                  A
And I know, I know that it wont be long
       D                 A
til' you come a-running righting the wrongs..
    D                  A
Ignoring the light to swallow the fright
     E                 D        E       A
to make it in time to keep me safe to night.

A      E
Baby, sing me to sleep
    D                  A             E
No apologies when you say that you love me

    D         E               A           E        D
but I don't mind if you can't be with me all the time.
      D        E                 A          E         D
So be on your way. No, that is not what I wanted to say.
        D                  E      A
I just want you, No, I need you to stay.



************************************

| /   slide up
| \   slide down
| h   hammer-on
| p   pull-off
| ~   vibrato
| +   harmonic
| x   Mute note
| D   Bend
| pb  Pre-bend
| br  Bend release
| pbr Pre-bend release
| brb Bend release bend

************************************
Suggest correction
comments
print report bad tab
guest
You may want to rate the tab now too:
select rating
Wanna post a correction for this tab? Suggest correction