Oops, an error
Loading. Please wait.

Maybe Tab

version 1
version 1

Whole song

653 views 3 this week
no commentswrite comment
1 2 3 4 5
x 3
add to favorites
launch autoscroll
font size
0
reset
how to read this tab
guitar tuner
×
Best way to learn
"Maybe"
Autoscroll
slow
fast
+/-
esc
set tempo
stop
Author
Difficulty
novice
-------------------------------------------------------------------------------
                            Maybe - Julia Stone
-------------------------------------------------------------------------------
Tabbed by: Hayan
E-mail: hayan_shoufi@hotmail.com

Tuning: Standard


Intro & Chorus:
e[----------------------------------------------|
B[----------------------------------------------|
G[---0--0-----0--0-----0--0-----0--0-----0--0---|
D[--1--1--1--5--5--5--6--5--5--1--1--1--1--1--1-|
A[-3--3--3--6--6--6--8--6--6--3--3--3--3--3--3--|
E[----------------------------------------------|


Verse:
e[-------------------------------------|
B[-------------------------------------|
G[---0--0-----0--0-----0--0-----0--0---|
D[--1--1--1--1--1--1--5--5--5--5--5--5-|
A[-3--3--3--3--3--3--6--6--6--6--6--6--|
E[-------------------------------------|


Bridge:
e[-------------------------------------|
B[-------------------------------------|
G[---0--0-----0--0-----0--0-----0--0---|         X4
D[--6--6--6--6--6--6--5--5--5--5--5--5-|  (repeat 4 times)
A[-8--8--8--8--8--8--6--6--6--6--6--6--|
E[-------------------------------------|



"Maybe"

She's got this kind of love
Why don't we let her know?
She's got this kind of hope
Why don't we let her know?

Maybe she got what she came for
Laying naked on the pine floor
Lonely we dance around the dying

Maybe she got what she came for
Lying naked on the pine floor
Lonely we dance around the dying
Maybe she got what she came for

Don't be scared I'm not here for your heart
Don't be scared I'm not here for your reasons
Don't be scared I'm just here for
The radio that plays in the background
While you're asking me to go




Enjoy !
Suggest correction
Give kudos to tab author, rate the tab!
1 2 3 4 5
comments
print report bad tab
guest
You may want to rate the tab now too:
select rating
Wanna post a correction for this tab? Suggest correction