Oops, an error
Loading. Please wait.

11Th Dimension Tab

version 1
version 1

Whole song

Interactive

31,261 views 75 this week
2 commentsread comments
1 2 3 4 5
excellent!
x 11
add to favorites
launch autoscroll
font size
0
reset
how to read this tab
guitar tuner
Autoscroll
slow
fast
+/-
esc
set tempo
stop
Help us to improve Ultimate-Guitar.com Take our survey!
×
Author
Difficulty
-------------------------------------------------------------------------------
                 11th Dimension - Julian Casablancas

My tab of the black and white live version off box set

Play along with video at http://www.juliancasablancas.com/julian_video/videos.html#
or http://www.youtube.com/watch?v=rV86UxO_1Oc&feature=player_embedded#!

Ill show you most of the chord fingerings and you use your own strumming

Keep in mind he plays this version in the key of C and the version on the album in the key of D




-------------------------------------------------------------------------------


Tabbed by: Chris Warner
Email: cwarner3000@gmail.com

Tuning:standard

    C   CMaj7  C   D  D  D Dadd2 D  repeat into intro "I just nod.."
e|--12--12----12---10-10-10----10-------------------------------------------|
B|--13--12----13---10-10-10-12-10-------------------------------------------|
G|--12--12----12---11-11-11-11-11-------------------------------------------|
D|--------------------------------------------------------------------------|
A|--------------------------------------------------------------------------|
E|--------------------------------------------------------------------------|
       C CMaj7 C  D  D            D Dadd2 D
I just nod,       Ive never been so good at shaking hands.
I live on the frozen surface of a fireball.
Where cities come together,      To hate each other in the name of sport.
America,  nothing is ever just anything.
I looked up to you but you thought I would look the other way.


    Em   Cm Cm7  B  B7         Em  Am    D   D7
e|---------------------------------------------------------------------------|
B|-------------------7-------------5-----3-----------------------------------|
G|---------------------------------5-----X----5------------------------------|
D|--9----10--8----9--7---------5---7-----4----4------------------------------|
A|--7----6--------6--6---------7---7-----5----5------------------------------|
E|-----------8----7--7-------------------------------------------------------|

      Em          Cm     Cm7   B Bsus4
And you hear, what you want to hear.
      Em        C           D  D7
And they take what they want to take.

(You could play the above chords Cm 8-10-10-8-8-8 and Cm7 8-10-8-8-8-8 but
he doesnt play that way in the video)


Don't be sad, wont ever happen like this anymore.
So whens it coming? This last new great movement that I can join.
It won't end here. Your faith has got to be greater than your fear.

 The chorus chords are Am G D he arpeggiated like this
e|-----------------------------------------------------------------------------------------------|
B|-----------------------------------------------------------------------------------------------|
G|---5--------5----------5-------4----------4----------4-----7-------7------7-----7-------7-----5|
D|-------7---------7-------------------5----------5--------------7-------7------------7------7---|
A|-7---7----7----7----7-------5-----5-----5----5-----5-----5---5---5---5---5----5---5---5---5--5-|
E|-----------------------------------------------------------------------------------------------|

then he alternates with strumming chords Am G D
e|---------------------------------------------------------------------------|
B|---13--------------------------12------------------------------------------|
G|---0---------------------------0---------------------------11--------------|
D|-----------------------------------------------------------0---------------|
A|---12--------------------------10------------------------------------------|
E|-----------------------------------------------------------10--------------|

Amin         G                    D
Forgive them even if they are not sorry.
All the vultures, bootleggers at the door waiting.
You are looking, for your own voice but in others.
Amin      G                     D      D7
While it hears you trapped in another dimension.

 C CMaj7 C  D  D            D Dadd2 D
Drop your guard, you dont have to be smart all of the time.
 C CMaj7 C  D  D            D Dadd2 D
Ive got a mind full of banks.
 C CMaj7 C  D  D            D Dadd2 D
I need to go somewhere new fast.
 C CMaj7 C  D  D            D Dadd2 D
And dont be shy, oh no, at least deliberately.


     G                                 F#m7
e|---------------------------------------------------------------------------|
B|--10--12-12--10--12--12------------10-12-12--10--12-12---------------------|
G|--12--12-12--12--12--12------------9--9--9---9---9--9----------------------|
D|---------------------------------------------------------------------------|
A|--10--10-10--10--10--10------------9--9--9---9---9--9----------------------|
E|---------------------------------------------------------------------------|

G (I added the base note on the A string which I don't think he plays but sounds nice)
Cos no one really cares or wonders why anymore.
F#m7
How I got music come outta my hands and feet and kisses, whoo.


Now the best part of the song...

    D7      G         Cmaj7      Cm          Em  (Harmonics sound cool here)
e|--3--2----5--3------7--5------10--8---------H-12-------------------------11-------|
B|--1--1----3--3------5--5------8---8---------H-12---repeat once then play-12-------|
G|--2--2----4--4------5--5------8---8---------H-12-------------------------12-------|
D|--0--0----5--5--------------------------------------------------------------------|
A|----------------------------------------------------------------------------------|
E|----------------------------------------------------------------------------------|

(3:32) Em   F#m     G       D
e|----------------------------------------------------------------------------|
B|----------------------------------------------------------------------------|
G|-----9------11------9-------------------------------------------------------|
D|-----9------11------9------7------play each chord 16x-----------------------|
A|-----7------9-------7------5------------------------------------------------|
E|-----0------0-------0------0------------------------------------------------|

(3:40) Em   F#m     G      Bm
e|----------------------------------------------------------------------------|
B|----------------------------------------------------------------------------|
G|----------------------------------------------------------------------------|
D|-----5-----7------9-----12-------play each chord 16x------------------------|
A|-----7-----9------10----14--------------------------------------------------|
E|-----0-----0------0-----0---------------------------------------------------|

Em       F#m   G              D
That is how it once was done.
Em        F#m      G         Bm
All the dreamers on the run.

Am   G     D
Forgive them even if they are not sorry.
All the vultures, bootleggers at the door waiting.
Were so quick to point our own flaws in others.
Complicated mammals on the wings of robots.


Am      G          D
If you believe, in this world, No one has died in vain.
But don't you dare get, to the top, and know what to do.


He jams a little at the end of the video with a bluesy outro using these chords:

   C   Cm     G     Gmaj7
e|------------3--------------------------------------------------------------|
B|-5----4-----3-------3------------------------------------------------------|
G|-5----5-----4-------4------------------------------------------------------|
D|-5----5-----5-------4------------------------------------------------------|
A|-3----3-----5-------x------------------------------------------------------|
E|------------3-------3------------------------------------------------------|

Enjoy!

************************************

| /   slide up
| \   slide down
| h   hammer-on
| p   pull-off
| ~   vibrato
| +   harmonic
| x   Mute note
| b   Bend
| pb  Pre-bend
| br  Bend release
| pbr Pre-bend release
| brb Bend release bend

************************************
Suggest correction
comments
print report bad tab
2 comments total.
+1 reply
justins03 331 wrote on December 8 2010, 07:56 am

This is just how he plays it well done.

+1 reply
MoonWise 10 wrote on February 14 2011, 03:16 pm

I really love that video, thanks :D !

guest
You may want to rate the tab now too:
select rating
Please do not post tabs as comments. Select "correction" instead!