Oops, an error
Loading. Please wait.

Glass tab

version 2
version 2

Whole song

Interactive

521 views 3 this week
no commentswrite comment
1 2 3 4 5
3 more votes to show rating
add to favorites
×
Save as Personal and add changes to this tab that will be seen only by you. Learn more ›
×
You can save this tab as Personal to edit and correct it or add notes. All changes will be seen only by you. Learn more »
launch autoscroll
font size
0
reset
how to read this tab
guitar tuner
edit
Autoscroll
slow
fast
+/-
esc
set tempo
stop
Author
Difficulty
-------------------------------------------------------------------------------
Glass (acoustic cover by YES THE RAVEN A.K.A. Alyn Mearns) - Julian Casablancas

Tabbed from video on youtube

http://www.youtube.com/watch?v=gR9_xVjPWR4&list=PL4D89E01C5F8704BC&index=2

Check out YES THE RAVEN @ http://www.yestheraven.com

The acoustic cover of Life is Simple in the Moonlight is just as awesome

-------------------------------------------------------------------------------
Tabbed by:Chris Warner
E-mail:cwarner3000@gmail.com

Tuning:Drop B    B-A-D-G-B-E

Capo 3rd Fret

Numbers are actual fret numbers so 3 is an open string

e|-------------------------------------------------------------------------------------|
B|-------------------------------------------------------------------------------------|
G|----3----3---3---3----3----3----3----3-----3----3----3---3---3----3----3-------------|
D|----------12-----------------12-------------------12----------------12---------------|
A|------13------13--------13--------13---------12--------12------10--------10----------|
B|--11----------------11-------------------11----------------11------------------------|
I dont believe it

e|--------------------------------------------------------------------------------------|
B|--------------------------------------------------------------------------------------|
G|----3---3---3---3----3---3---3---3-----3----3---3----3----3----3---3----3-------------|
D|----------5----------------5------------------13-----------------13-------------------|
A|------6-------6--------6-------6---------15-------15--------15-------15---------------|
B|--4----------------4-----------------13-----------------13----------------------------|
I wont believe it

e|-------------------------------------------------------------------------------------|
B|-------------------------------------------------------------------------------------|
G|----3---3---3---3---3---3---3---3----3----3--3---3---3---3---3----3------------------|
D|----------7---------------12----------------8---------------8------------------------|
A|------8-------8-------13------13-------10------10------10------10--------------------|
B|--6---------------11----------------8---------------8--------------------------------|
Im not sad...I under

e|-------------------------------------------------------------------------------------|
B|-------------------------------------------------------------------------------------|
G|-----3----3----3---3---3----3----3----3----3---3--3---3---3----3---3---3-------------|
D|------------13----------------13-----------------7----------------7------------------|
A|-------15--------15------15--------15--------8------8--------6-------6---------------|
B|--13-----------------13-------------------6--------------6---------------------------|
..stand thats how it goes

e|-------------------------------------------------------------------------------------|
B|-------------------------------------------------------------------------------------|
G|----3----3---3---3----3----3----3----3-----3----3----3---3---3----3----3-------------|
D|----------12-----------------12-------------------12----------------12---------------|
A|------13------13--------13--------13---------12--------12------10--------10----------|
B|--11----------------11-------------------11----------------11------------------------|
Take it easy

e|--------------------------------------------------------------------------------------|
B|--------------------------------------------------------------------------------------|
G|----3---3---3---3----3---3---3---3-----3----3---3----3----3----3---3----3-------------|
D|----------5----------------5------------------13-----------------13-------------------|
A|------6-------6--------6-------6---------15-------15--------15-------15---------------|
B|--4----------------4-----------------13-----------------13----------------------------|
Theres no time to be mad

e|-------------------------------------------------------------------------------------|
B|-------------------------------------------------------------------------------------|
G|----3---3---3---3---3---3---3---3----3----3--3---3---3---3---3----3------------------|
D|----------7---------------12----------------8---------------8------------------------|
A|------8-------8-------13------13-------10------10------10------10--------------------|
B|--6---------------11----------------8---------------8--------------------------------|
thats their job, blood on their..

e|-------------------------------------------------------------------------------------|
B|-------------------------------------------------------------------------------------|
G|-----3----3----3---3---3----3----3----3----3---3--3---3---3----3---3---3-------------|
D|------------13----------------13-----------------7----------------7------------------|
A|-------15--------15------15--------15--------8------8--------6-------6---------------|
B|--13-----------------13-------------------6--------------6---------------------------|
..teeth, death on their minds

e|-------------------------------------------------------------------------------------|
B|-------------------------------------------------------------------------------------|
G|----3----3---3---3----3----3----3----3-----3----3----3---3---3----3----3-------------|
D|----------12-----------------12-------------------12----------------12---------------|
A|------13------13--------13--------13---------12--------12------10--------10----------|
B|--11----------------11-------------------11----------------11------------------------|
Pretty baby

e|--------------------------------------------------------------------------------------|
B|--------------------------------------------------------------------------------------|
G|----3---3---3---3----3---3---3---3-----3----3---3----3----3----3---3----3-------------|
D|----------5----------------5------------------13-----------------13-------------------|
A|------6-------6--------6-------6---------15-------15--------15-------15---------------|
B|--4----------------4-----------------13-----------------13----------------------------|
Please just get out of the..

e|-------------------------------------------------------------------------------------|
B|-------------------------------------------------------------------------------------|
G|----3---3---3---3---3---3---3---3----3----3--3---3---3---3---3----3------------------|
D|----------7---------------12----------------8---------------8------------------------|
A|------8-------8-------13------13-------10------10------10------10--------------------|
B|--6---------------11----------------8---------------8--------------------------------|
..way, where its safe


e|-------------------------------------------------------------------------------------|
B|----3----3---3----3----3----3---3----3---3----3---3----3----3----3---3-----3---------|
G|-----------8------------------8------------------------------------------------------|
D|------10-------10--------10-------10------------7------------------7-----------------|
A|--3------------------3----------------------10-------10-------10--------10-----------|
B|----------------------------------------8------------------8-------------------------|
Eyes will follow you

e|-------------------------------------------------------------------------------------|
B|----3----3---3----3----3----3---3----3---3----3---3----3----3----3---3-----3---------|
G|-----------8------------------8------------------------------------------------------|
D|------10-------10--------10-------10------------7------------------7-----------------|
A|--3------------------3----------------------10-------10-------10--------10-----------|
B|----------------------------------------8------------------8-------------------------|
Weapons cant break through

e|------------------3-----------------------------6----5-------------------------------|
B|----3---3---3--3-----3---3-------4---4---4---4--------------3---3----3--3-10--8------|
G|----------3----------------10----------3----------3----3----------10-----------------|
D|------3------3---------3-----------3-------3------------------3--------3-----3---3---|
A|-------------------------------------------------------------------------------------|
B|--11--------------11-----------4----------------4----4----3----------------3---3-----|
Bulletproof....glass

e|------------------3-----------------------------6----5-------------------------------|
B|----3---3---3--3-----3---3-------4---4---4---4--------------3---3----3--3-10--8------|
G|----------3----------------10----------3----------3----3----------10-----------------|
D|------3------3---------3-----------3-------3------------------3--------3-----3---3---|
A|-------------------------------------------------------------------------------------|
B|--11--------------11-----------4----------------4----4----3----------------3---3-----|
Bulletproof...glass

e|------------------3-----------------------------6----5-------------------------------|
B|----3---3---3--3-----3---3-------4---4---4---4--------------3---3----3--3-10--8------|
G|----------3----------------10----------3----------3----3----------10-----------------|
D|------3------3---------3-----------3-------3------------------3--------3-----3---3---|
A|-------------------------------------------------------------------------------------|
B|--11--------------11-----------4----------------4----4----3----------------3---3-----|
Bulletproof, you're in trouble now

e|-------------------------------------------------------------------------------------|
B|-----3---3----3---3----4---3---------------------------------------------------------|
G|----------------3----------------5-----5---5---5---5---5---5----5--------------------|
D|-------3---10------------3---------------3-------3-------3---------------------------|
A|-------------------------------------------------------------------------------------|
B|--11-------------------4---------6---6-------6-------6--------6----------------------|
but who knows

e|-------------------------------------------------------------------------------------|
B|-----3---3----3---3----4---3---------------------------------------------------------|
G|----------------3----------------5-----5---5---5---5---5---5----5--------------------|
D|-------3---10------------3---------------3-------3-------3---------------------------|
A|-------------------------------------------------------------------------------------|
B|--11-------------------4---------6---6-------6-------6--------6----------------------|
but who knows

e|-------------------------------------------------------------------------------------|
B|-------------------------------------------------------------------------------------|
G|----3----3---3---3----3----3----3----3-----3----3----3---3---3----3----3-------------|
D|----------12-----------------12-------------------12----------------12---------------|
A|------13------13--------13--------13---------12--------12------10--------10----------|
B|--11----------------11-------------------11----------------11------------------------|
Please dont deceive me

e|--------------------------------------------------------------------------------------|
B|--------------------------------------------------------------------------------------|
G|----3---3---3---3----3---3---3---3-----3----3---3----3----3----3---3----3-------------|
D|----------5----------------5------------------13-----------------13-------------------|
A|------6-------6--------6-------6---------15-------15--------15-------15---------------|
B|--4----------------4-----------------13-----------------13----------------------------|
Im just so easily fooled

e|-------------------------------------------------------------------------------------|
B|-------------------------------------------------------------------------------------|
G|----3---3---3---3---3---3---3---3----3----3--3---3---3---3---3----3------------------|
D|----------7---------------12----------------8---------------8------------------------|
A|------8-------8-------13------13-------10------10------10------10--------------------|
B|--6---------------11----------------8---------------8--------------------------------|
..but theres some things they do not...

e|-------------------------------------------------------------------------------------|
B|-------------------------------------------------------------------------------------|
G|-----3----3----3---3---3----3----3----3----3---3--3---3---3----3---3---3-------------|
D|------------13----------------13-----------------7----------------7------------------|
A|-------15--------15------15--------15--------8------8--------6-------6---------------|
B|--13-----------------13-------------------6--------------6---------------------------|
..want the answers to

e|-------------------------------------------------------------------------------------|
B|-------------------------------------------------------------------------------------|
G|----3----3---3---3----3----3----3----3-----3----3----3---3---3----3----3-------------|
D|----------12-----------------12-------------------12----------------12---------------|
A|------13------13--------13--------13---------12--------12------10--------10----------|
B|--11----------------11-------------------11----------------11------------------------|
Don't want to bring all that up

e|--------------------------------------------------------------------------------------|
B|--------------------------------------------------------------------------------------|
G|----3---3---3---3----3---3---3---3-----3----3---3----3----3----3---3----3-------------|
D|----------5----------------5------------------13-----------------13-------------------|
A|------6-------6--------6-------6---------15-------15--------15-------15---------------|
B|--4----------------4-----------------13-----------------13----------------------------|
but they keep leaving it out

e|-------------------------------------------------------------------------------------|
B|-------------------------------------------------------------------------------------|
G|----3---3---3---3---3---3---3---3----3----3--3---3---3---3---3----3------------------|
D|----------7---------------12----------------8---------------8------------------------|
A|------8-------8-------13------13-------10------10------10------10--------------------|
B|--6---------------11----------------8---------------8--------------------------------|
what to do

e|-------------------------------------------------------------------------------------|
B|----3----3---3----3----3----3---3----3---3----3---3----3----3----3---3-----3---------|
G|-----------8------------------8------------------------------------------------------|
D|------10-------10--------10-------10------------7------------------7-----------------|
A|--3------------------3----------------------10-------10-------10--------10-----------|
B|----------------------------------------8------------------8-------------------------|
Well just let it be

e|-------------------------------------------------------------------------------------|
B|----3----3---3----3----3----3---3----3---3----3---3----3----3----3---3-----3---------|
G|-----------8------------------8------------------------------------------------------|
D|------10-------10--------10-------10------------7------------------7-----------------|
A|--3------------------3----------------------10-------10-------10--------10-----------|
B|----------------------------------------8------------------8-------------------------|
Until they all need

e|------------------3-----------------------------6----5-------------------------------|
B|----3---3---3--3-----3---3-------4---4---4---4--------------3---3----3--3-10--8------|
G|----------3----------------10----------3----------3----3----------10-----------------|
D|------3------3---------3-----------3-------3------------------3--------3-----3---3---|
A|-------------------------------------------------------------------------------------|
B|--11--------------11-----------4----------------4----4----3----------------3---3-----|
Bulletproof....glass

e|------------------3-----------------------------6----5-------------------------------|
B|----3---3---3--3-----3---3-------4---4---4---4--------------3---3----3--3-10--8------|
G|----------3----------------10----------3----------3----3----------10-----------------|
D|------3------3---------3-----------3-------3------------------3--------3-----3---3---|
A|-------------------------------------------------------------------------------------|
B|--11--------------11-----------4----------------4----4----3----------------3---3-----|
Bulletproof....glass

e|------------------3-----------------------------6----5-------------------------------|
B|----3---3---3--3-----3---3-------4---4---4---4--------------3---3----3--3-10--8------|
G|----------3----------------10----------3----------3----3----------10-----------------|
D|------3------3---------3-----------3-------3------------------3--------3-----3---3---|
A|-------------------------------------------------------------------------------------|
B|--11--------------11-----------4----------------4----4----3----------------3---3-----|
Bulletproof....youre in trouble now


e|-------------------------------------------------------------------------------------|
B|-----3---3----3---3----4---3---------------------------------------------------------|
G|----------------3----------------5-----5---5---5---5---5---5----5--------------------|
D|-------3---10------------3---------------3-------3-------3---------------------------|
A|-------------------------------------------------------------------------------------|
B|--11-------------------4---------6---6-------6-------6--------6----------------------|
but who knows

e|-------------------------------------------------------------------------------------|
B|-----3---3----3---3----4---3---------------------------------------------------------|
G|----------------3----------------5-----5---5---5---5---5---5----5--------------------|
D|-------3---10------------3---------------3-------3-------3---------------------------|
A|-------------------------------------------------------------------------------------|
B|--11-------------------4---------6---6-------6-------6--------6----------------------|
but who knows


SOLO 3:09

e|------------6---------6-5-3-5-3--3---------------3-----------------------------------|
B|--3-----------------------------6--6-4-6-3-----6---6---------------------------------|
G|-------------------------------------------7h8-------8-------------------------------|
D|-----3-3-3-----3-3-3-----------------------------------------------------------------|
A|--5-5-5-5--5--5-5-5------------------------------------------------------------------|
B|-------------------------------------------------------------------------------------|

e|-------------5--------8-6-5-6-5--5--------------------------------------------------|
B|--------------------------------8--8-6-8---------3----------------------------------|
G|--5--5-5-5-----5-5-5--------------------8---3h5---5---------------------------------|
D|--7-7-7-7---7-7-7-7-----------------------7---------7-------------------------------|
A|------------------------------------------------------------------------------------|
B|------------------------------------------------------------------------------------|

e|------------3-----------------------------------------------------------------------|
B|--3------------------6-4-3-4-3-3----------------------------------------------------|
G|-----7-7-7----7-7-7-----------5-5-3-5-3--3----3-------------------------------------|
D|--8-8-8-8--8-8-8-8----------------------7--7p5--7p5---------------------------------|
A|------------------------------------------------------------------------------------|
B|------------------------------------------------------------------------------------|

e|----------------------10---10----8----8----6----6----6----6--------------------------|
B|----------------------------------------------3----3----3----3-----------------------|
G|--3--------5-------------7----7----7----7--------------------------------------------|
D|-----5-5-5----5-5-5------------------------5----5----3----3--------------------------|
A|--6-6-6-6--3-3-3-3----9----9----5----5-----------------------------------------------|
B|-------------------------------------------------------------------------------------|

e|--8-----8-----6-----6------5-----5----5----5---------------------------------------|
B|------------------------------6-----6----6----6------------------------------------|
G|-----5-----5-----5-----5-----------------------------------------------------------|
D|---------------------------3-----3-------------------------------------------------|
A|--7-----7-----3-----3-----------------6----6---------------------------------------|
B|-----------------------------------------------------------------------------------|

e|--6-----6------5----5-----3-----3-----3---3-----------------------------------------|
B|-----3-----3------3----3------------------------------------------------------------|
G|-----------------------------3-----3----3----3--------------------------------------|
D|---------------3----3---------------------------------------------------------------|
A|--5-----5-----------------6-----6-----5---5-----------------------------------------|
B|------------------------------------------------------------------------------------|

e|--5-----5-----5----5-----------------------------------------------------------------|
B|--------------------------7------7------7-----7--------------------------------------|
G|-----5-----5----5-----5------7------7------7-----7-----------------------------------|
D|----------------------------------------7-----7--------------------------------------|
A|--3-----3-----6----6------5------5---------------------------------------------------|
B|-------------------------------------------------------------------------------------|


Verse 3:37

e|-------------------------------------------------------------------------------------|
B|-------------------------------------------------------------------------------------|
G|----3----3---3----3---3----3--3----3---3---3---3---3----3----3---3----3--------------|
D|-----------7-----------------7----------------7-----------------7--------------------|
A|------10-------10-------10------10-------10------10-------10-------10----------------|
B|--8-----------------8-----------------8----------------8-----------------------------|
If you wanna know someone

e|--------------------------------------------------------------------------------------|
B|--------------------------------------------------------------------------------------|
G|----3---3---3---3----3---3---3---3-----3----3---3----3----3----3---3----3-------------|
D|----------5----------------5------------------13-----------------13-------------------|
A|------6-------6--------6-------6---------15-------15--------15-------15---------------|
B|--4----------------4-----------------13-----------------13----------------------------|
might take a quick look at

e|-------------------------------------------------------------------------------------|
B|-------------------------------------------------------------------------------------|
G|----3---3---3---3---3---3---3---3----3----3--3---3---3---3---3----3------------------|
D|----------7---------------12----------------8---------------8------------------------|
A|------8-------8-------13------13-------10------10------10------10--------------------|
B|--6---------------11----------------8---------------8--------------------------------|
..their best friend, diamonds are

e|-------------------------------------------------------------------------------------|
B|-------------------------------------------------------------------------------------|
G|-----3----3----3---3---3----3----3----3----3---3--3---3---3----3---3---3-------------|
D|------------13----------------13-----------------7----------------7------------------|
A|-------15--------15------15--------15--------8------8--------6-------6---------------|
B|--13-----------------13-------------------6--------------6---------------------------|
..hers, the dog is his

e|-------------------------------------------------------------------------------------|
B|-------------------------------------------------------------------------------------|
G|----3----3---3---3----3----3----3----3-----3----3----3---3---3----3----3-------------|
D|----------12-----------------12-------------------12----------------12---------------|
A|------13------13--------13--------13---------12--------12------10--------10----------|
B|--11----------------11-------------------11----------------11------------------------|
You can lie to yourself

e|--------------------------------------------------------------------------------------|
B|--------------------------------------------------------------------------------------|
G|----3---3---3---3----3---3---3---3-----3----3---3----3----3----3---3----3-------------|
D|----------5----------------5------------------13-----------------13-------------------|
A|------6-------6--------6-------6---------15-------15--------15-------15---------------|
B|--4----------------4-----------------13-----------------13----------------------------|
but dont lie to me

e|-------------------------------------------------------------------------------------|
B|-------------------------------------------------------------------------------------|
G|----3---3---3---3---3---3---3---3----3----3--3---3---3---3---3----3------------------|
D|----------7---------------12----------------8---------------8------------------------|
A|------8-------8-------13------13-------10------10------10------10--------------------|
B|--6---------------11----------------8---------------8--------------------------------|
its what they want

e|-------------------------------------------------------------------------------------|
B|----3----3---3----3----3----3---3----3---3----3---3----3----3----3---3-----3---------|
G|-----------8------------------8------------------------------------------------------|
D|------10-------10--------10-------10------------7------------------7-----------------|
A|--3------------------3----------------------10-------10-------10--------10-----------|
B|----------------------------------------8------------------8-------------------------|
Dominance and loyalty

e|-------------------------------------------------------------------------------------|
B|----3----3---3----3----3----3---3----3-----------------------------------------------|
G|-----------8------------------8----------3----3----3---3----3---3---3----------------|
D|------10-------10--------10-------10------------7-----------------5------------------|
A|--3------------------3----------------------8-------10--------6----------------------|
B|----------------------------------------6------------------4-------------------------|
Romance and security

e|----------------------------------------------------------------------------------|
B|----------------------4---4--4---4------------------------------------------------|
G|----3---3---3---3----------3------------------------------------------------------|
D|----------3-------------5------5--------------------------------------------------|
A|------5-------5----3--------------------------------------------------------------|
B|--3-------------------------------------------------------------------------------|
Stay behind

e|------------------3-----------------------------6----5-------------------------------|
B|----3---3---3--3-----3---3-------4---4---4---4--------------3---3----3--3-10--8------|
G|----------3----------------10----------3----------3----3----------10-----------------|
D|------3------3---------3-----------3-------3------------------3--------3-----3---3---|
A|-------------------------------------------------------------------------------------|
B|--11--------------11-----------4----------------4----4----3----------------3---3-----|
Bulletproof....glass

e|------------------3-----------------------------6----5-------------------------------|
B|----3---3---3--3-----3---3-------4---4---4---4--------------3---3----3--3-10--8------|
G|----------3----------------10----------3----------3----3----------10-----------------|
D|------3------3---------3-----------3-------3------------------3--------3-----3---3---|
A|-------------------------------------------------------------------------------------|
B|--11--------------11-----------4----------------4----4----3----------------3---3-----|
Bulletproof....glass

e|------------------3-----------------------------6----5-------------------------------|
B|----3---3---3--3-----3---3-------4---4---4---4--------------3---3----3--3-10--8------|
G|----------3----------------10----------3----------3----3----------10-----------------|
D|------3------3---------3-----------3-------3------------------3--------3-----3---3---|
A|-------------------------------------------------------------------------------------|
B|--11--------------11-----------4----------------4----4----3----------------3---3-----|
Bulletproof....glass

e|------------------3-----------------------------6----5-------------------------------|
B|----3---3---3--3-----3---3-------4---4---4---4--------------3---3----3--3-10--8------|
G|----------3----------------10----------3----------3----3----------10-----------------|
D|------3------3---------3-----------3-------3------------------3--------3-----3---3---|
A|-------------------------------------------------------------------------------------|
B|--11--------------11-----------4----------------4----4----3----------------3---3-----|
ooooh oh oh...

e|----------------------3------------------------------------------------------------|
B|---3--3----3--3-11-----------------------------------------------------------------|
G|--------10--------------10---------------------------------------------------------|
D|----3-------3----------------------------------------------------------------------|
A|-3-----------------3---------------------------------------------------------------|
B|-----------------------------------------------------------------------------------|
ohhhh

e|------------------3-----------------------------6----5-------------------------------|
B|----3---3---3--3-----3---3-------4---4---4---4--------------3---3----3--3-10--8------|
G|----------3----------------10----------3----------3----3----------10-----------------|
D|------3------3---------3-----------3-------3------------------3--------3-----3---3---|
A|-------------------------------------------------------------------------------------|
B|--11--------------11-----------4----------------4----4----3----------------3---3-----|
ooooh oh oh...

e|----------------------3------------------------------------------------------------|
B|---3--3----3--3-11-----------------------------------------------------------------|
G|--------10--------------10---------------------------------------------------------|
D|----3-------3----------------------------------------------------------------------|
A|-3-----------------3---------------------------------------------------------------|
B|-----------------------------11----------------------------------------------------|
ohhhh



************************************

| /   slide up
| \   slide down
| h   hammer-on
| p   pull-off
| ~   vibrato
| +   harmonic
| x   Mute note
| b   Bend
| pb  Pre-bend
| br  Bend release
| pbr Pre-bend release
| brb Bend release bend

************************************

            
            
Suggest correction
Creating personal tab
Creating personal tab
You can edit any tab online and save it as your Personal.

You can edit, replace or remove any tab part or add personal notes – all changes will be seen only by you.

Personal tabs can be accessed anytime from any device, even offline.
Learn more »
Give kudos to tab author, rate the tab!
1 2 3 4 5
comments
print report bad tab
guest
You may want to rate the tab now too:
select rating
Wanna post a correction for this tab? Suggest correction