Oops, an error
Loading. Please wait.

Out Of The Blue chords

version 2
version 2

Whole song

Interactive

9,607 views 9 this week
5 commentsread comments
1 2 3 4 5
x 8
add to favorites
×
Save as Personal and add changes to this tab that will be seen only by you. Learn more ›
×
You can save this tab as Personal to edit and correct it or add notes. All changes will be seen only by you. Learn more »
launch autoscroll
font size
0
reset
transpose
0
reset
display chords
guitar tuner
edit
Autoscroll
slow
fast
+/-
esc
set tempo
stop
Author
Strumming
There is no strumming pattern for this song yet. and get +5 IQ
(I will be adding the missing layers of the song as I figure them out, so check back frequently) 

    E A D G B E
Db: x 4 6 6 6 4
Ab: 4 6 6 5 4 4
Eb: x 6 8 8 8 6
Fm: x 8 10 10 9 8


Intro: Db


Db
Somewhere along the way my hopefulness turned to sadness
Ab
Somewhere along the way my sadness turned to bitterness
Eb
Somewhere along the way my bitterness turned to anger
Ab
Somewhere along the way my anger turned to vengeance


    Db
And the ones that I make pay

Are never the ones who deserve it
    Ab
and the ones who deserve it they'll never understand it
    Eb
Yes, I know I am going to hell in a purple basket
    Ab
At least I will be in another world, while you're pissing on my casket


Ab                  Db Fm Eb
How could you be Oh
               Ab   Db Fm Eb
So perfect for me? Oh
               Ab   Db Fm Eb
Why can't you ignore Oh
               Ab   Db Fm Eb
The things I did before?


Db
Somewhere along the way exacting vengeance gave excitement
Ab
Somewhere along the way that excitement turned to pleasure
Eb
Somewhere along the way that pleasure turned to madness
Ab
Sooner or later that kind of madness turns into pain


Db
And the ones that I made pay were never ones who deserved it
Ab
Those who helped me along the way, I smacked them as I thanked them
Eb
Yes, I know I am going to hell in a leather jacket
Ab
At least I will be in another world, while you're pissing on my casket

All that I can do now is sing a song of faded glory
And all you got to do is sit there look great and make them horny
Together we will sing songs and tell exaggerated stories
About the way we feel today, and tonight and in the morning

(There are two separate guitars here, but they play mostly the same notes. And I'm too lazy
to tab them both)

e|-------------------------------|------------------------------------------|
B|-------6-----------6---4-------|--------4-----------4---------------------|
G|-6---6---6---6---6---6-----6---|--5---5---5---5---5---5-------------------|
D|---6-------6---6---------6-----|----6-------6---6-------6-----------------|
A|-------------------------------|------------------------------------------|
E|-------------------------------|------------------------------------------|


e|-------------------------------|------------------------------------------|
B|-------4-----------4-----------|---------9-------------9H11P9-------------|
G|-3---3---3---3---3---6-3-------|--8----8---8----8----8--------8-----------|
D|---5-------5---5---------5-----|----10-------10---10------------10--------|
A|-------------------------------|------------------------------------------|
E|-------------------------------|------------------------------------------|

Ab                  Db Fm Eb
How could you be Oh
               Ab   Db Fm Eb
So perfect for me? Oh
               Ab   Db Fm Eb
Why can't you ignore Oh
               Ab   Db Fm Eb
The things I did before?


Eb
And take all your fears
Eb
And pretend they're all true
Eb
And take all your plans
Eb
And pretend they fell through
Eb                    Ab     Db Fm Eb
And that's what it's like, Oh
                 Ab             Db      Fm      Eb
That's what it's like for most people in this world

                Ab    Db Fm Eb
The rich or the poor Oh
           Ab    Db Fm Db
Muslims or Jews Oh
               Ab        Db Fm Eb
When roles are reversed Oh
             Ab   Db   Fm Eb
Opinions are too No, oh oh

(play this next part [part A] six times, with a variation to the last part of the 
third and sixth)

e|-11----16----11----16-------13----16----13----16--------------------------|
B|----13----13----13----13-------13----13----13----16-----------------------|
G|--------------------------------------------------------------------------|
D|--------------------------------------------------------------------------|
A|--------------------------------------------------------------------------|
E|--------------------------------------------------------------------------|


e|-15----18----15----18----15----18----15----18-----------------------------|
B|----16----16----16----16----16----16----16----16--------------------------|
G|--------------------------------------------------------------------------|
D|--------------------------------------------------------------------------|
A|--------------------------------------------------------------------------|
E|--------------------------------------------------------------------------|

*variation (if your guitar doesn't have 23 frets then slightly bend the 22nd. it's 
tricky, but doable.):


e|-15----18----15----18----18----21----21----23-----------------------------|
B|----16----16----16----16----16----16----18----20--------------------------|
G|--------------------------------------------------------------------------|
D|--------------------------------------------------------------------------|
A|--------------------------------------------------------------------------|
E|--------------------------------------------------------------------------|


                         Ab   Db Fm Eb
That's all I'm gonna say now
                                     Ab   Db Fm Eb
Before they come knockin' on my door now

(play this part until the end of the song. After two repetitions, play part A 
again along with this) 

e|--------------------------------------------------------------------------|
B|-13--14--13--14--16--14--13--14--11--13--11--13--11--13--11--13-----------|
G|--------------------------------------------------------------------------|
D|--------------------------------------------------------------------------|
A|--------------------------------------------------------------------------|
E|--------------------------------------------------------------------------|

Outro: Ab Db Fm Eb
Suggest correction
Creating personal tab
Creating personal tab
You can edit any tab online and save it as your Personal.

You can edit, replace or remove any tab part or add personal notes – all changes will be seen only by you.

Personal tabs can be accessed anytime from any device, even offline.
Learn more »
comments
print report bad tab
5 comments total. Showing first comments.
0 reply
justins03 376 Nov 09, 2009 05:26 AM

everything sounds very good here except that Fm sounds a bit off. well done though.

0 reply
ZiggyPlayedG 20 Nov 09, 2009 04:41 PM

Mmm, I don't know, sounds alright to me, man. Are you playing it the way I wrote in on the top of the page?

0 reply
ZiggyPlayedG 20 Nov 09, 2009 04:45 PM

Yikes. My grammar sucks.

guest
You may want to rate the tab now too:
select rating
Wanna post a correction for this tab? Suggest correction