Oops, an error
Loading. Please wait.

River Of Brakelights tab

version 1
version 1

Whole song

Interactive

6,915 views 6 this week
no commentswrite comment
1 2 3 4 5
x 7
add to favorites
×
Save as Personal and add changes to this tab that will be seen only by you. Learn more ›
×
You can save this tab as Personal to edit and correct it or add notes. All changes will be seen only by you. Learn more »
launch autoscroll
font size
0
reset
how to read this tab
guitar tuner
edit
Autoscroll
slow
fast
+/-
esc
set tempo
stop
-----------------------------------------------------------------------------
                             River of Brakelights – Julian Casablancas
-----------------------------------------------------------------------------

Tabbed by: Chris Warner 6/2/10
Email: cwarner3000@gmail.com




I tabbed what i think works for two guitars from the Jimmy Fallon performance. I 
wrote Guitar 1 and Guitar 2 where this applies.


The link for the Jimmy Fallon version which is similar to the album version is here:
http://www.youtube.com/watch?v=7eknY-UTH2k

Below are the chords for each section
Chords EADGBe

Bdim  x2344x
G#m  4211xx
C9  x4344x

D#dim xx124x and x67x4x
Bbmaj7 x1323x and 68778x
C#m7  x464xx

C#m  x4665x
A  x7765x
G  x5543x
G#+  x6655x

Cm  x3554x
G#  x6654x
Eb  x6534x
Bb  x1333x

Fm  x810 109x
C#  x11 11 10 9x
B  x9987x
C+  x101099x

Em  x7998x
C  x10 1098x
G  x10 978x
D  x5777x

Em  x79xxx
C  8 10xxxx
Bb  68xxxx
C#  9 11xxxx




Intro
Guitar 1  (Synth for guitar)
e|------------------------------------------------------------------------------------|
B|------------------------------------------------------------------------------------|
G|------------------------------------------------------------------------------------|
D|------------------------7-8---------------------------7-8---------------------------|
A|-----8-7------------8-7-----------8-7-------------8-7-------------------------------|
E|---6--------------6--------------6---------------6----------------------------------|


Guitar 1
e|------------------------------------------------------------------------------------|
B|------------------------------------------------------------------------------------|
G|------------------------------------------------------------------------------------|
D|------------------------7-8---------------------------7-8---------------------------|
A|-----8-7------------8-7-----------8-7-------------8-7-------------------------------|
E|---6--------------6--------------6---------------6----------------------------------|
Guitar 2 played with guitar 1
e|---------9---------------9-------------9---------------8----------------------------|
B|------11--11-10-11----11--11-10-----11-11-10-11----11-11-10-------------------------|
G|---10---------------10------------10--------------10--------------------------------|
D|--8----------------8-------------8---------------8----------------------------------|
A|------------------------------------------------------------------------------------|
E|------------------------------------------------------------------------------------|


VERSE:

Bdim
e|------------------------------------------------------------------------------------|
B|--------4------------4----------4----------4----------------------------------------|
G|------4--4---------4--4-3-----4--4-------4--4-3-------------------------------------|
D|----3-----3------3----------3-----3-----3-------------------------------------------|
A|--2----------1-2----------2---------1-2---------------------------------------------|
E|------------------------------------------------------------------------------------|
"We might be in for a late night"

G#m
e|-----------------------------------------------------------------------------|
B|-----------------------------------------------------------------------------|
G|--------4-1-----------4-1----------4-1------------4-1------------------------|
D|------1-----1-------1-----1------1-----1--------1-----1----------------------|
A|----2-------------2------------2--------------2------------------------------|
E|--4-----------2-4------------4------------2-4--------------------------------|
"stuck in a lava flow of brake lights"

C9
e|------------------------------------------------------------------------------------|
B|--------4------------4----------4----------4----------------------------------------|
G|------4--4---------4--4-------4--4-------4--4---------------------------------------|
D|----3-----3------3-----3----3-----3-----3----3--------------------------------------|
A|--4----------2-4----------4---------2-4---------------------------------------------|
E|------------------------------------------------------------------------------------|
"I can hear the rattling bass drum"

G#m
e|-----------------------------------------------------------------------------------|
B|-----------------------------------------------------------------------------------|
G|--------4-1-----------4-1----------4-1------------4-1------------------------------|
D|------1-----1-------1-----1------1-----1--------1-----1----------------------------|
A|----2-------------2------------2--------------2------------------------------------|
E|--4-----------2-4------------4------------2-4--------------------------------------|
"driving back to where it came from"


Guitar 1
D#dim
e|-------------------------------------------------------------------------------------|
B|-----4-----4----4-----4-3---4----4----4----4-3----------------------------------------|
G|-------0h2--------0h2--------0h2-------0h2-------------------------------------------|
D|--1-----------1-----------1---------1------------------------------------------------|
A|-------------------------------------------------------------------------------------|
E|-------------------------------------------------------------------------------------|
Guitar 2
D#dim
e|-------------------------------------------------------------------------------------|
B|----4-----4-----4-----4------4----4---4----4-----------------------------------------|
G|-------------------------------------------------------------------------------------|
D|------5h7---------5h7--7------5h7------5h7--7----------------------------------------|
A|--6-----------6------------6---------6-----------------------------------------------|
E|-------------------------------------------------------------------------------------|
"Sit back..."

Guitar 1
Bbmaj7
e|-----------------------------------------------------------------------------|
B|----3----3----3-----3-4----3-----3----3-----3-4------------------------------|
G|-----2h3--------2h3----------2h3--------2h3----------------------------------|
D|-----------------------------------------------------------------------------|
A|--1---------1------------1----------1----------------------------------------|
E|-----------------------------------------------------------------------------|
Guitar2
Bbmaj7
e|-----------------------------------------------------------------------------|
B|-----------------------------------------------------------------------------|
G|----7-----7---7-----7-8----7-----7----7-----7-8------------------------------|
D|------7h8-------7h8----------7h8--------7h8----------------------------------|
A|-----------------------------------------------------------------------------|
E|--6---------6-------------6----------6---------------------------------------|
"Ohhh..."

C#m7
e|-----------------------------------------------------------------------------|
B|-----------------------------------------------------------------------------|
G|----4-----4----4-----4-3-------4-----4----4-----4-3--------------------------|
D|------5h6--------5h6-----4-------5h6--------5h6-----4------------------------|
A|--4----------4---------------4----------4------------------------------------|
E|-----------------------------------------------------------------------------|
"I shop therefore I am the cause" (he shortens this for TV so this is album version)
C#m7                         C#m
e|-----------------------------------------------------------------------------|
B|-----------------------------5555-5555-5555-5555-----------------------------|
G|----4-----4----4-----4-3-----6666-6666-6666-6666-----------------------------|
D|------5h6--------5h6-----4---6666-6666-6666-6666-----------------------------|
A|--4----------4---------------4444-4444-4444-4444-----------------------------|
E|-----------------------------------------------------------------------------|
"Protect me from what I was"


Chorus
Guitar 1
C#m                         A
e|-----------------------------------------------------------------------------|
B|------5-4-5-------5-4-5-------5-4-5--------5-4-5-----------------------------|
G|----6------6----6------6----6-------6----6-------6---------------------------|
D|--6-----------6-----------7------------7-------------------------------------|
A|-----------------------------------------------------------------------------|
E|-----------------------------------------------------------------------------|
Guitar 2
C#m                         A
e|-------------------------------------------------------------------------------|
B|--5-----------------------5----------------------------------------------------|
G|--6--X16------------------6-X16------------------------------------------------|
D|--6-----------------------7----------------------------------------------------|
A|--4-----------------------7----------------------------------------------------|
E|-------------------------------------------------------------------------------|
"Getting the hang of it, getting the hang of it"


G                            G#+
e|-----------------------------------------------------------------------------|
B|--3--2--3--2--3--2--3--2--------5-4-5------5-4-5-----------------------------|
G|---4--4--4--4--4--4--4--4-----5------5---5------5----------------------------|
D|-----------------------------6----------6------------------------------------|
A|-----------------------------------------------------------------------------|
E|-----------------------------------------------------------------------------|
Guitar 2
G                            G#+
e|----------------------------------------------------------------------------------|
B|--3-------------------------5-----------------------------------------------------|
G|--4-X16---------------------5-----------------------------------------------------|
D|--5-------------------------6-----------------------------------------------------|
A|--5-------------------------6-----------------------------------------------------|
E|----------------------------------------------------------------------------------|
"Getting the hang of it, getting the hang of it"

Guitar 1
C#m                         A
e|-----------------------------------------------------------------------------|
B|------5-4-5-------5-4-5-------5-4-5--------5-4-5-----------------------------|
G|----6------6----6------6----6-------6----6-------6---------------------------|
D|--6-----------6-----------7------------7-------------------------------------|
A|-----------------------------------------------------------------------------|
E|-----------------------------------------------------------------------------|
Guitar 2
C#m                         A
e|-----------------------------------------------------------------------------|
B|--5-----------------------5--------------------------------------------------|
G|--6--X16------------------6-X16----------------------------------------------|
D|--6-----------------------7--------------------------------------------------|
A|--4-----------------------7--------------------------------------------------|
E|-----------------------------------------------------------------------------|
"Timing is everything, timing is everything"

Guitar 1
G#+
e|-----------------------------------------------------------------------------|
B|--6--5--6--5--6--5--6--5-----------------------------------------------------|
G|---5--5--5--5--5--5--5--5----------------------------------------------------|
D|-----------------------------------------------------------------------------|
A|-----------------------------------------------------------------------------|
E|-----------------------------------------------------------------------------|
Guitar 2
G#+
e|------------------------------------------------------------------------------|
B|--5---------------------------------------------------------------------------|
G|--5---------------------------------------------------------------------------|
D|--6---------------------------------------------------------------------------|
A|--6---------------------------------------------------------------------------|
E|------------------------------------------------------------------------------|
"Timing is everything, timing is everything"


Guitar 1
Cm                         G#
e|-----------------------------------------------------------------------------|
B|------4-3-4-------4-3-4-------4-3-4--------4-6-4-3---------------------------|
G|----5------5----5------5----5-------5----5-----------------------------------|
D|--5-----------5-----------6------------6-------------------------------------|
A|-----------------------------------------------------------------------------|
E|-----------------------------------------------------------------------------|
Guitar 2
Cm                         G#
e|---------------------------------------------------------------------------|
B|--4-----------------------4------------------------------------------------|
G|--5--X16------------------5--X16-------------------------------------------|
D|--5-----------------------6------------------------------------------------|
A|--3-----------------------6------------------------------------------------|
E|---------------------------------------------------------------------------|
"Im at your feet"


Guitar 1
Eb                              Bb
e|-----------------------------------------------------------------------------|
B|--4--3--4--3--4--3--4--3-------3-1-3-----3-1-3-------------------------------|
G|---3--3--3--3--3--3--3--3----3------3--3-------3-----------------------------|
D|-----------------------------------------------------------------------------|
A|-----------------------------1---------1-------------------------------------|
E|-----------------------------------------------------------------------------|
Guitar 2
Eb                               Bb
e|-----------------------------------------------------------------------------|
B|--4--------------------------3-----------------------------------------------|
G|--3-X16----------------------3-X16-------------------------------------------|
D|--5--------------------------3-----------------------------------------------|
A|--6--------------------------1-----------------------------------------------|
E|-----------------------------------------------------------------------------|
"Where critters meet"

Guitar 1
Cm                         G#
e|-----------------------------------------------------------------------------|
B|------4-3-4-------4-3-4-------4-3-4--------4-6-4-3---------------------------|
G|----5------5----5------5----5-------5----5-----------------------------------|
D|--5-----------5-----------6------------6-------------------------------------|
A|-----------------------------------------------------------------------------|
E|-----------------------------------------------------------------------------|
Guitar 2
Cm                          G#
e|---------------------------------------------------------------------------|
B|--4-----------------------4------------------------------------------------|
G|--5--X16------------------5--X16-------------------------------------------|
D|--5-----------------------6------------------------------------------------|
A|--3-----------------------6------------------------------------------------|
E|---------------------------------------------------------------------------|
"Who should be asleep and not crossing"

Guitar 1
Eb                            Bb
e|------------------------------------------------------------------------------|
B|--4--3--4--3--4--3--4--3-------3---1--3--4---3--1--3--------------------------|
G|---3--3--3--3--3--3--3--3----3---3--3--3---3--3--3----------------------------|
D|------------------------------------------------------------------------------|
A|----------------------------1-------------------------------------------------|
E|------------------------------------------------------------------------------|
Guitar 2
Eb                            Bb
e|-----------------------------------------------------------------------------|
B|--4--------------------------3-----------------------------------------------|
G|--3-X16----------------------3-X16-------------------------------------------|
D|--5--------------------------3-----------------------------------------------|
A|--6--------------------------1-----------------------------------------------|
E|-----------------------------------------------------------------------------|
"roads or highways"

Guitar 1
Cm                         G#
e|-----------------------------------------------------------------------------|
B|------4-3-4-------4-3-4-------4-3-4--------4-6-4-3---------------------------|
G|----5------5----5------5----5-------5----5-----------------------------------|
D|--5-----------5-----------6------------6-------------------------------------|
A|-----------------------------------------------------------------------------|
E|-----------------------------------------------------------------------------|
Guitar 2
Cm                         G#
e|---------------------------------------------------------------------------|
B|--4-----------------------4------------------------------------------------|
G|--5--X16------------------5--X16-------------------------------------------|
D|--5-----------------------6------------------------------------------------|
A|--3-----------------------6------------------------------------------------|
E|---------------------------------------------------------------------------|
"In the afterlife of super cities rapidly"


Guitar 1
Eb                            Bb
e|-----------------------------------------------------------------------------|
B|--4--3--4--3--4--3--4--3-------3-1-3-----3-1-3-------------------------------|
G|---3--3--3--3--3--3--3--3----3------3--3-------3-----------------------------|
D|-----------------------------------------------------------------------------|
A|-----------------------------1---------1-------------------------------------|
E|-----------------------------------------------------------------------------|
Guitar 2
Eb                             Bb
e|-----------------------------------------------------------------------------|
B|--4--------------------------3-----------------------------------------------|
G|--3-X16----------------------3-X16-------------------------------------------|
D|--5--------------------------3-----------------------------------------------|
A|--6--------------------------1-----------------------------------------------|
E|-----------------------------------------------------------------------------|
"devouring its outskirts"


Guitar 1
Cm                                      G#
Guitar 1
e|-----11--10---11--10--11--10--11--10----11--10---11---10---11--10----11--10-------|
B|--/8----8---8----8---8---8---8---8-----9---9----9---9----9----9----9---9--------|
G|-----------------------------------------------------------------------------|
D|-----------------------------------------------------------------------------|
A|-----------------------------------------------------------------------------|
E|-----------------------------------------------------------------------------|
Guitar 2
Cm                                      G#
e|-----------------------------------------------------------------------------|
B|--4-------------------------------------4------------------------------------|
G|--5--X16--------------------------------5--X16-------------------------------|
D|--5-------------------------------------6------------------------------------|
A|--3-------------------------------------6------------------------------------|
E|-----------------------------------------------------------------------------|
"Its neon octopus arms redecorating"


Guitar 1
Eb                                       Bb
e|----11--10--11--10---11---10--11--10-----11---10---11---10---11---10---11---10-------|
B|-------------------------------------------------------------------------------------|
G|--8---8---8---8----8----8----8---8-----10---10---10---10---10---10---10---10---------|
D|-------------------------------------------------------------------------------------|
A|-------------------------------------------------------------------------------------|
E|-------------------------------------------------------------------------------------|
Guitar 2
Eb                                       Bb
e|-----------------------------------------------------------------------------|
B|--4-------------------------------------3------------------------------------|
G|--3-X16---------------------------------3-X16--------------------------------|
D|--5-------------------------------------3------------------------------------|
A|--6-------------------------------------1------------------------------------|
E|-----------------------------------------------------------------------------|
"late at night"


SOLO:Still working on it


Verse 2: repeat the above tab

Bdim
"Robot camp for kids who hate sports"
G#m
"Mothers crying at the airport"
C9
"Finding the dreams you left behind to do"
G#m
"Waving goodbye your young heart cries for you"

D#dim
"Set back"
Bbmaj7
"Ohhh.."
D#dim
"You're finding it hard"
Bbmaj7
"to get very far"

C#m7
"But we were born waiting in line"
C#m7               C#m
"grabbing the future by the eyes"



Guitar 1
Fm                              C#
e|-----------------------------------------------------------------------------|
B|------9-8-9--------9-8-9---------9-8-9---------9-8-9-------------------------|
G|----10-----10---10------10----10------10----10------10-----------------------|
D|--10----------10------------11------------11---------------------------------|
A|-----------------------------------------------------------------------------|
E|-----------------------------------------------------------------------------|
Guitar 2
Fm                               C#
e|-----------------------------------------------------------------------------|
B|--9---------------------------9----------------------------------------------|
G|--10-X16---------------------10--X16-----------------------------------------|
D|--10-------------------------11----------------------------------------------|
A|--8--------------------------11----------------------------------------------|
E|-----------------------------------------------------------------------------|
"Getting the hang of it, getting the hang of it, timing is everything, timing is everything"


Guitar 1
B                               C+
e|-----------------------------------------------------------------------------|
B|--7--6--7--6--7--6--7--6-------9-8-9--------9-8-9----------------------------|
G|---8--8--8--8--8--8--8--8----9------9-----9-------9--------------------------|
D|---------------------------10-----------10-----------------------------------|
A|-----------------------------------------------------------------------------|
E|-----------------------------------------------------------------------------|
Guitar 2
B                              C+
e|-----------------------------------------------------------------------------|
B|--7------------------------9-------------------------------------------------|
G|--8-X16--------------------9--X16--------------------------------------------|
D|--9------------------------10------------------------------------------------|
A|--9------------------------10------------------------------------------------|
E|-----------------------------------------------------------------------------|
"getting the hang of it, timing is everything, getting the hang of it, timing is everything"


Guitar 1
Fm                           C#
e|-----------------------------------------------------------------------------|
B|------9-8-9--------9-8-9---------9-8-9---------9-8-9-------------------------|
G|----10-----10---10------10----10------10----10------10-----------------------|
D|--10----------10------------11------------11---------------------------------|
A|-----------------------------------------------------------------------------|
E|-----------------------------------------------------------------------------|
Guitar 2
Fm                            C#
e|-----------------------------------------------------------------------------|
B|--9---------------------------9----------------------------------------------|
G|--10-X16---------------------10--X16-----------------------------------------|
D|--10-------------------------11----------------------------------------------|
A|--8--------------------------11----------------------------------------------|
E|-----------------------------------------------------------------------------|
"Timing the hang of it, getting is everything, getting the timing of, everything hanging is"


Guitar 1
 C+
e|-----------------------------------------------------------------------------|
B|--10--9--10--9--10--9---10--9------------------------------------------------|
G|----9--9---9---9--9---9---9---9----------------------------------------------|
D|-----------------------------------------------------------------------------|
A|-----------------------------------------------------------------------------|
E|-----------------------------------------------------------------------------|
Guitar 2
C+
e|---------------------------------------------------------------------------------|
B|--9------------------------------------------------------------------------------|
G|--9---X16------------------------------------------------------------------------|
D|--10-----------------------------------------------------------------------------|
A|--10-----------------------------------------------------------------------------|
E|---------------------------------------------------------------------------------|
Hanging the getting of, timing the everything"



Guitar 1
Em                           C
e|-----------------------------------------------------------------------------|
B|------8-7-8-------8-7-8-------8-7-8------8-10-8-7----------------------------|
G|----9------9----9-------9----9-----9---9-------------------------------------|
D|--9-----------9------------10--------10--------------------------------------|
A|-----------------------------------------------------------------------------|
E|-----------------------------------------------------------------------------|
Guitar 2
Em                           C
e|-----------------------------------------------------------------------------|
B|--8------------------------8-------------------------------------------------|
G|--9--X16-------------------9---X16-------------------------------------------|
D|--9------------------------10------------------------------------------------|
A|--7------------------------10------------------------------------------------|
E|-----------------------------------------------------------------------------|
Like batteries we die"

Guitar 1
G                            D
e|-----------------------------------------------------------------------------|
B|--8--7--8--7--8--7--8--7-------7-5-7------7-5-7------------------------------|
G|---7--7--7--7--7--7--7--7----7------7---7------7-----------------------------|
D|-----------------------------------------------------------------------------|
A|----------------------------5----------5-------------------------------------|
E|-----------------------------------------------------------------------------|
Guitar 2
G                            D
e|-----------------------------------------------------------------------------|
B|--8-------------------------7------------------------------------------------|
G|--7--X16--------------------7---X16------------------------------------------|
D|--9-------------------------7------------------------------------------------|
A|--10------------------------5------------------------------------------------|
E|-----------------------------------------------------------------------------|
"Like rivers we dry"


Guitar 1
Em                           C
e|-----------------------------------------------------------------------------|
B|------8-7-8-------8-7-8-------8-7-8------8-10-8-7----------------------------|
G|----9------9----9-------9----9-----9---9-------------------------------------|
D|--9-----------9------------10--------10--------------------------------------|
A|-----------------------------------------------------------------------------|
E|-----------------------------------------------------------------------------|
Guitar 2
Em                           C
e|-----------------------------------------------------------------------------|
B|--8------------------------8-------------------------------------------------|
G|--9--X16-------------------9---X16-------------------------------------------|
D|--9------------------------10------------------------------------------------|
A|--7------------------------10------------------------------------------------|
E|-----------------------------------------------------------------------------|
"We fuel and recharge"


Guitar 1
G                              D
e|-----------------------------------------------------------------------------|
B|--8--7--8--7--8--7--8--7-------7--5--7--8--7--5--7---------------------------|
G|---7--7--7--7--7--7--7--7----7--7--7--7--7--7--7--7--------------------------|
D|-----------------------------------------------------------------------------|
A|----------------------------5----------5-------------------------------------|
E|-----------------------------------------------------------------------------|
Guitar 2
G                              D
e|-----------------------------------------------------------------------------|
B|--8-------------------------7------------------------------------------------|
G|--7--X16--------------------7---X16------------------------------------------|
D|--9-------------------------7------------------------------------------------|
A|--10------------------------5------------------------------------------------|
E|-----------------------------------------------------------------------------|
"Like humans and cars"


Guitar 1
Em                           C
e|-----------------------------------------------------------------------------|
B|------8-7-8-------8-10-8-7------8-7-8-------8-7-8----------------------------|
G|----9------9----9--------------9------9----9------9--------------------------|
D|--9-----------9-------------10----------10-----------------------------------|
A|-----------------------------------------------------------------------------|
E|-----------------------------------------------------------------------------|
Guitar 2
Em                           C
e|-----------------------------------------------------------------------------|
B|--8------------------------8-------------------------------------------------|
G|--9--X16-------------------9---X16-------------------------------------------|
D|--9------------------------10------------------------------------------------|
A|--7------------------------10------------------------------------------------|
E|-----------------------------------------------------------------------------|
"My fun, my sun"


G                              D
e|-----------------------------------------------------------------------------|
B|--8--7--8--7--8--7--8--7-------7-5-7------7-5-7------------------------------|
G|---7--7--7--7--7--7--7--7----7------7---7------7-----------------------------|
D|-----------------------------------------------------------------------------|
A|----------------------------5----------5-------------------------------------|
E|-----------------------------------------------------------------------------|
Guitar 2
G                              D
e|-----------------------------------------------------------------------------|
B|--8-------------------------7------------------------------------------------|
G|--7--X16--------------------7---X16------------------------------------------|
D|--9-------------------------7------------------------------------------------|
A|--10------------------------5------------------------------------------------|
E|-----------------------------------------------------------------------------|
"Be my homework done"


Guitar 1
Em                                     C
e|----15--14--15--14--15--14--15--14----15--14--15--14--15--14--15--14---------|
B|--12--12--12--12--12--12--12--12----13--13--13--13--13--13--13--13-----------|
G|-----------------------------------------------------------------------------|
D|-----------------------------------------------------------------------------|
A|-----------------------------------------------------------------------------|
E|-----------------------------------------------------------------------------|
Guitar 2
Em                                     C
e|-----------------------------------------------------------------------------|
B|--8-----------------------------------8--------------------------------------|
G|--9--X16------------------------------9---X16--------------------------------|
D|--9-----------------------------------10-------------------------------------|
A|--7-----------------------------------10-------------------------------------|
E|-----------------------------------------------------------------------------|
"Where did you go"
Guitar 1
G                                           D
e|-----15---14---15---14---15---14---15---14----15--14--15--14--15--14--15--14-------|
B|-----------------------------------------------------------------------------------|
G|--12---12---12---12---12---12---12---12-----14--14--14--14--14--14--14--14---------|
D|-----------------------------------------------------------------------------------|
A|-----------------------------------------------------------------------------------|
E|-----------------------------------------------------------------------------------|
Guitar 2
G                                           D
e|-----------------------------------------------------------------------------|
B|--8-------------------------------------------7------------------------------|
G|--7--X16--------------------------------------7---X16------------------------|
D|--9-------------------------------------------7------------------------------|
A|--10------------------------------------------5------------------------------|
E|-----------------------------------------------------------------------------|
"you were my ride home"

Guitar 1
Em                                 C
e|--12----12----12-------12-----8---8---8-----8----------------------------------|
B|--12-12-12-12-12-12-12-12-12--8-8-8-8-8-8-8-8-8--------------------------------|
G|--12-12-12-12-12-12-12-12-12--9-9-9-9-9-9-9-9-9--------------------------------|
D|-------------------------------------------------------------------------------|
A|-------------------------------------------------------------------------------|
E|-------------------------------------------------------------------------------|
Guitar 2
Em                                 C
e|-----------------------------------------------------------------------------------|
B|-----------------------------------------------------------------------------------|
G|--9-X16----------------------------------------------------------------------------|
D|--9-----------------------------10--X16--------------------------------------------|
A|--7-----------------------------10-------------------------------------------------|
E|---------------------------------8-------------------------------------------------|
"Is that what we want, is everything shot"


Guitar 1
G                                           D
e|---------------------------------------------------------------------------------|
B|--12----12----12-------12-----10----10----10--------10---------------------------|
G|--12-12-12-12-12-12-12-12-12--11-11-11-11-11-11-11-11-11-------------------------|
D|--12-12-12-12-12-12-12-12-12--12-12-12-12-12-12-12-12-12-------------------------|
A|---------------------------------------------------------------------------------|
E|---------------------------------------------------------------------------------|
Guitar 2
G                                           D
e|-----------------------------------------------------------------------------|
B|-----------------------------------------------------------------------------|
G|--5-X16--------------------------7-X16---------------------------------------|
D|--5------------------------------7-------------------------------------------|
A|--3------------------------------5-------------------------------------------|
E|-----------------------------------------------------------------------------|
""Is that what you asked for, cuz thats what we got"



    Em      Cmaj7   A#     C#
e|--------------------------------------------------------------------------------|
B|--------------------------------------------------------------------------------|
G|--------------------------------------------------------------------------------|
D|--9-X8----9----------------------------------------------------------------------|
A|--7-------7-X8----8-X8---11-X8--------------------------------------------------|
E|----------8-------6-------9-----------------------------------------------------|
"Nothing stands still"
"Nothing stands still"



************************************

| /   slide up
| \   slide down
| h   hammer-on
| p   pull-off
| ~   vibrato
| +   harmonic
| x   Mute note
| b   Bend
| pb  Pre-bend
| br  Bend release
| pbr Pre-bend release
| brb Bend release bend

************************************

            
            
Suggest correction
Creating personal tab
Creating personal tab
You can edit any tab online and save it as your Personal.

You can edit, replace or remove any tab part or add personal notes – all changes will be seen only by you.

Personal tabs can be accessed anytime from any device, even offline.
Learn more »
comments
print report bad tab
guest
You may want to rate the tab now too:
select rating
Wanna post a correction for this tab? Suggest correction