Oops, an error
Loading. Please wait.

World Shut Your Mouth bass

590 views 1 this week
no commentswrite comment
1 2 3 4 5
x 4
add to favorites
×
Save as Personal and add changes to this tab that will be seen only by you. Learn more ›
×
You can save this tab as Personal to edit and correct it or add notes. All changes will be seen only by you. Learn more »
launch autoscroll
font size
0
reset
guitar tuner
edit
Autoscroll
slow
fast
+/-
esc
set tempo
stop
Author
Difficulty
-----------------------------------------------------------------------------
                                          Artist - Julian Cope
                                         **********************
                                      Song - World Shut Your Mouth  
                                     ******************************
                                       Album - Saint Julian (1987)  
                                      *****************************
                                           Tabbed By - Ayreon77
                                          **********************
-----------------------------------------------------------------------------
Tuning = Standard



INTRO
******
G|-------------------------|    |-----|--------|------------|
D|-------------------------|    |---9-|----9---|------------|
A|----s--------------------|    |-----|--------|------------|
E|-7-7\--0-0--2-2--0-0-4-5-|X3  |-7---|-77---7-|-5-5-00-4-5-|X2

------------------------
VERSE 1
********
G|-------------------------|------------|-----------|
D|-------------------------|------------|-----------|
A|-------------------------|------------|---7-7-5-4-|
E|-7--7--0--5-5--5--0--4-5-|-7--7--0--5-|-7---------|X4

------------------------
CHORUS
*******
G|-------------------------|    |-----|--------|------------|
D|-------------------------|    |---9-|----9---|------------|
A|----s--------------------|    |-----|--------|------------|
E|-7-7\--0-0--2-2--0-0-4-5-|X4  |-7---|-77---7-|-5-5-00-4-5-|X2

------------------------
VERSE 2
********
G|-------------------------|------------|-----------|
D|-------------------------|------------|-----------|
A|-------------------------|------------|---7-7-5-4-|
E|-7--7--0--5-5--5--0--4-5-|-7--7--0--5-|-7---------|X4

------------------------
CHORUS                          GUITAR SOLO
*******                         ************
G|-------------------------|    |-----|--------|------------|
D|-------------------------|    |---9-|----9---|------------|
A|----s--------------------|    |-----|--------|------------|
E|-7-7\--0-0--2-2--0-0-4-5-|X4  |-7---|-77---7-|-5-5-00-4-5-|X4 

------------------------
CHORUS
*******
G|-------------------------|    
D|-------------------------|    
A|----s--------------------|    
E|-7-7\--0-0--2-2--0-0-4-5-|X4  

E|-------0-0--2-2--2-2-5-7-| on the tempo change play this on the last of the 4
                             to go into the tempo change
TEMPO CHANGE 2
---------------
G|------------------------|---------------|    |----------|
D|------------------------|---------------|    |----------|
A|----s-------------------|---------------|    |-9-9-7----|
E|-9-9\-2-2--4-4--2-2-5-7-|-9-9--2-2--4-4-|    |-------10-|

------------------------
TEMPO CHANGE 1
---------------
CHORUS
*******
G|-------------------------|
D|-------------------------|
A|----s--------------------|
E|-7-7\--0-0--2-2--0-0-4-5-|X8

E|-------0-0--2-2--2-2-5-7-| on the tempo change play this on the last of the 4
                             to go into the tempo change
TEMPO CHANGE 2
---------------
G|------------------------|
D|------------------------|
A|----s-------------------|Repeat
E|-9-9\-2-2--4-4--2-2-5-7-|  And Fade Out.............



ENJOY..........

            
            
Suggest correction
Creating personal tab
Creating personal tab
You can edit any tab online and save it as your Personal.

You can edit, replace or remove any tab part or add personal notes – all changes will be seen only by you.

Personal tabs can be accessed anytime from any device, even offline.
Learn more »
comments
print report bad tab
guest
You may want to rate the tab now too:
select rating
Wanna post a correction for this tab? Suggest correction