Oops, an error
Loading. Please wait.

40S tab

928 views 18 this week
no commentswrite comment
1 2 3 4 5
3 more votes to show rating
add to favorites
×
Save as Personal and add changes to this tab that will be seen only by you. Learn more ›
×
You can save this tab as Personal to edit and correct it or add notes. All changes will be seen only by you. Learn more »
launch autoscroll
font size
0
reset
how to read this tab
guitar tuner
edit
Autoscroll
slow
fast
+/-
esc
set tempo
stop
    ______________________
   / 40's                 /
  / Julian Lage          /
 / World's Fair (2015)  /
/______________________/


  key:    F major / D major
  time:   4/4
  tempo:  Q=140 bpm
  tuning: Whole-step down (D G C F A d)
  writer: Julian Lage


Strum mainly with a pick, and throw in some additional finger-picking when necessary.
-------------------------------------------------------------------------------------



[A1]
 Fmaj7            Bb      F/A      Gm
|----------------|------------0---|----0-----0-0-0-|----0-------2---|
|----------------|--------0h1-----|----1-----1-1-1-|----1---0h1-----|
|0---------------|----0-----------|----2-----2-2-2-|----2-----------|
|4---3-2-0---0---|2---------------|----2-----2-2-2-|----2-----------|
|x-----------2---|3-------2-------|0---------------|0---------------|
|3---------------|----------------|----------------|----------------|


 C7/E                              C/E     F        C       F7       Bb
|----------------|----------------|----------------|----------------|----------------|
|----1---------1-|----1-------0---|----3---1-0-----|----------------|----------------|
|----2-----------|----2-----------|2-0---------2-0-|----------------|0---------0-----|
|----0-----------|----0-----------|----------------|4-------9~------|2-----------0h2-|
|----------------|----------------|----------------|5-------8~------|3---------------|
|2---------------|2---------------|2-------3-------|----------------|----------------|


 F                F7/C             Bb6              Db6 Ab/C Gm/Bb Fm/Ab
|----------------|----------------|----------------|----------------|
|--------0-------|----0-----------|----------------|----------------|
|0---2-------0---|----------0-----|------0-2-------|3h5-3---2---0---|
|--0-------------|3-----------3---|2---------------|----------0---0-|
|----------------|5---------------|3---------------|6---5---3---1---|
|3---------------|----------------|3---------------|----------------|


 F       Dm7      F       Dm7      F       Bb/D     Bb/F
|----------------|----------------|--------------0-|----0-----------|
|0---1---3-----3-|----3-------0---|----3---1-----1-|----1-----------|
|----0---0-----0-|----0-------0---|--------0-------|----0-----------|
|--------x-------|--0-0-------0---|--------2-------|--2--------2----|
|--------2-------|----------------|--------x-------|----------------|
|3-------0-------|3-------0-------|3-------0-------|3---------------|


[A2]
 Fmaj7            Bb      F/A      Gm7
|----------------|------------0---|----3---------3-|----3-------2---|
|----------------|--------0h1-1---|----1---------1-|----1---0h1-----|
|0---------------|----0-------0---|----0---------0-|----0-----------|
|4---3-2-0-------|2---------------|----2-----------|--2-2-----------|
|x-----------2---|3-------2-------|0---------------|0-0-------------|
|3---------------|----------------|----------------|----------------|

                                  (2/4)
 C7/E             C/E     F        C6       Bb
|----2-----------|----------------|--------|----------------|
|----1-------0---|----3---1-0-----|--------|----------------|
|----2-----------|2-0---------2-0-|----4---|----------0-----|
|----0-----------|----------------|4-------|2-----------0h2-|
|----------------|----------------|5-------|3---------------|
|2---------------|2-------3-------|--------|3---------------|


 F                F7/C             Bb6              Db6 Ab/C Gm/Bb Fm/Ab
|----------------|----------------|----------------|----------------|
|--------0-------|----0-----------|----------------|----------------|
|0---2-------0---|----------0-----|------0-2-------|3h5-3---2---0---|
|--0-----------0-|3-----------3---|2-------2-------|----------0---0-|
|----------------|5---------------|3---------------|6---5---3---1---|
|3---------------|----------------|3---------------|----------------|

                                                                    (2/4)
 F  C7/E Dm7      F       Dm7      F       Bb/D     Bb/F    Bb/D     Fsus2/4
|----------------|----------------|--------------0-|----0-----0-----|--------|
|0---1---3-----3-|----3-------0---|----3---1-----1-|----1-----1-----|----1---|
|0---0---0-----0-|----0-------0---|----0---0-------|----0-----0---0-|2-------|
|--------x-----0-|--0-0-------0---|----0---2-------|--2-----------0-|0-------|
|--------2-------|----------------|----------------|------------2---|x-------|
|3---2---0-------|3-------0-------|3-------0-------|3-------0-------|3-------|




... If you want to support a contributor like me, check out the complete tab
    on my own site, where you will get both detailed pdfs and sound-files:


        www.playlikethegreats.com/julian-lage/40s


    Musical regards,
    Maitinin
    June, 2016 "

            
            
Suggest correction
Creating personal tab
Creating personal tab
You can edit any tab online and save it as your Personal.

You can edit, replace or remove any tab part or add personal notes – all changes will be seen only by you.

Personal tabs can be accessed anytime from any device, even offline.
Learn more »
Give kudos to tab author, rate the tab!
1 2 3 4 5
comments
print report bad tab
guest
You may want to rate the tab now too:
select rating
Wanna post a correction for this tab? Suggest correction