Oops, an error
Loading. Please wait.

Day And Age tab

6,029 views 66 this week
4 commentsread comments
1 2 3 4 5
x 13
add to favorites
×
Save as Personal and add changes to this tab that will be seen only by you. Learn more ›
×
You can save this tab as Personal to edit and correct it or add notes. All changes will be seen only by you. Learn more »
launch autoscroll
font size
0
reset
how to read this tab
guitar tuner
edit
Autoscroll
slow
fast
+/-
esc
set tempo
stop
Author
Difficulty
    ______________________
   / Day and Age          /
  / Julian Lage          /
 / World's Fair (2015)  /
/______________________/


  key:    E major
  time:   4/4
  tempo:  Q=114 bpm, shuffled 8ths
  tuning: Standard tuning (E A D G B e)
  writer: Julian Lage

  Strum mainly with a pick, and throw in some additional finger-picking when necessary.
---------------------------------------------------------------------------------------


[1]

 E       B/D#     Amaj7/C#         B11sus           E
|----------------|4^--------4-----|2^--2---2-4-----|----0---------0-|
|----------5-----|5^--------------|2^------2-----2-|----4/5-----5---|
|4---4---6-------|6^--------------|2^----------2---|----x-----------|
|------------4---|7^------7-------|2^--------------|----5/6---------|
|--------6-------|4^----------4-0-|2^--------------|----------------|
|0---------------|----------------|----------------|0---------------|


 E       B/D#     Amaj7/C#         B11sus            A
|----------------|4^--------4-----|2---2^--2^-4-----|----0-----0---0-|
|----------5-----|5^--------5-----|2---2^--2^-----2-|----4/5-----5---|
|4---4---6-------|6^--------------|2---2^--2^---2---|----2-------2---|
|------------4---|7^------7---7---|--------2^---2---|----x-------4---|
|--------6-------|4^--------------|2----------------|0---------------|
|0---------------|----------------|-----------------|----------------|


 E                A6               B13sus            A(add2)
|---12--12-9-7---|0^--0^----0-----|----7^--7^-------|------0---------|
|---12--12-9-7-9-|7^--7^----------|----9^--9^-9\7-5-|--------0-------|
|---13--13-9-8-6-|6^--6^------6---|----9^--9^-------|6---------6-----|
|--------------9-|7^--7^------7---|--7-----7^-------|7-----------7---|
|----------------|0^--0^----------|-----------------|0-------------0-|
|0---------------|----------------|7----------------|----------------|


 E       B/D#     Amaj7/C# B11sus  E
|----------------|4^-------2^-----|0----------------|-----------------|
|----------5-----|5^-------2^-----|0-------0--------|-----------------|
|4---4---6-------|6^-------2^-----|1-------1--------|1----------------|
|------------4---|7^-------2^-----|----2---2--------|2---2------------|
|------0-6-----0-|4^-------2^-----|-----------2-4-2-|----2---2----2---|
|0---------------|----------------|0----------------|--------3/4--0---|



... If you want to support a contributor like me, check out the complete tab
    on my own site, where you will get both detailed pdfs and sound-files:


       www.playlikethegreats.com/julian-lage/day-and-age


    Musical regards,
    Maitinin
    June, 2016 "
Suggest correction
Creating personal tab
Creating personal tab
You can edit any tab online and save it as your Personal.

You can edit, replace or remove any tab part or add personal notes – all changes will be seen only by you.

Personal tabs can be accessed anytime from any device, even offline.
Learn more »
comments
print report bad tab
4 comments total. Showing first comments.
+1 reply
seanruffatti 10 Mar 01, 2017 07:59 PM

what does the "^" symbol mean?

0 reply
robertteepell 10 May 12, 2017 06:20 PM

Im assuming it means strum up

guest
You may want to rate the tab now too:
select rating
Wanna post a correction for this tab? Suggest correction