Oops, an error
Loading. Please wait.

Double Stops tab

439 views 3 this week
no commentswrite comment
1 2 3 4 5
3 more votes to show rating
add to favorites
×
Save as Personal and add changes to this tab that will be seen only by you. Learn more ›
×
You can save this tab as Personal to edit and correct it or add notes. All changes will be seen only by you. Learn more »
launch autoscroll
font size
0
reset
how to read this tab
guitar tuner
edit
Autoscroll
slow
fast
+/-
esc
set tempo
stop
    ______________________
   / Double Stops         /
  / Julian Lage          /
 / World's Fair (2015)  /
/______________________/


  key:    Gb major
  time:   3/4
  tempo:  Q=115 bpm
  tuning: Standard tuning (E A D G B e)
  writer: Julian Lage

  capo on 6th fret


 Strum the notes in the lower voice with the pick, and pick the notes in the
 upper voice with your middle and ring finger.
 The term "double stop" is a classical music term for simultaneously playing
 two strings on bowed instruments; here referring to the two–voices phrases.

-----------------------------------------------------------------------------



  Db7 alt.                  Gb           Gb/Db
 |------------|0---0--5--3-|0---0---0---|0---0---0---|
 |--------0-0-|--0-3-------|--1---1---1-|--1---1-----|
 |----0-0-----|2-4---------|----0---0---|----0---0---|
 |--0-----1-4-|------------|--2---2---2-|--2---2-----|
 |2-2-2-4-----|------------|3-----------|----------0-|
 |3-----------|------------|------------|3-----------|


  Db7 alt.                  Gb           Gb/Db
 |------------|-------5--3-|0---0---0---|0---0---0---|
 |------------|0---4-------|--1---1---1-|--1---1-----|
 |------0---2-|2-3-3-------|----0---0---|----0---0---|
 |--0-2-2-4-3-|--4---------|--2---2---2-|--2---2---2-|
 |2-2-3---5---|------------|3-----------|------------|
 |4-----------|------------|------------|3-----------|


  Db7 alt.                  Gb           Gb/Db
 |------------|------0-5-4-|0---0---0---|0---0---0---|
 |------0-----|--0-4-------|--1---1---1-|--1---1-----|
 |--0-0---0-2-|3-3-5---4---|----0---0---|----0---0---|
 |------2-5-3-|4-----------|--2---2---2-|--2---2-----|
 |0-2-3-------|------------|3-----------|----------0-|
 |4-----------|------------|------------|3-----------|



... If you want to support a contributor like me, check out the complete tab
    on my own site, where you will get both detailed pdfs and sound-files:


       www.playlikethegreats.com/julian-lage/double-stops


    Musical regards,
    Maitinin
    June, 2016 "

            
            
Suggest correction
Creating personal tab
Creating personal tab
You can edit any tab online and save it as your Personal.

You can edit, replace or remove any tab part or add personal notes – all changes will be seen only by you.

Personal tabs can be accessed anytime from any device, even offline.
Learn more »
Give kudos to tab author, rate the tab!
1 2 3 4 5
comments
print report bad tab
guest
You may want to rate the tab now too:
select rating
Wanna post a correction for this tab? Suggest correction