Oops, an error
Loading. Please wait.

Freigh Train Tab

34 views 3 this week
no commentswrite comment
1 2 3 4 5
3 more votes to show rating
add to favorites
launch autoscroll
font size
0
reset
how to read this tab
guitar tuner
Autoscroll
slow
fast
+/-
esc
set tempo
stop
Help us to improve Ultimate-Guitar.com Take our survey!
×
Author
Difficulty
intermediate
    __________________
   / Freight Train    /
  / Julian Lage      /
 / Gladwell (2011)  /
/__________________/


   key:    C major
   time:   4/4
   tempo:  Q=85 bpm
   tuning: Standard tuning (E A D G B e)
   writer: Elizabeth Cotten

 Pick the bass notes with a pick, and pick the melody notes with your
 right–hand middle and ring finger.
 Slightly palm mute (P.M.) the bass notes, and let the melody notes ring
 unrestrained.

--------------------------------------------------------------------------------


[A1]
 C                                G7
|3---------0---------------------|------3-----1-------------------|
|----------------3---------1-----|0-------------------------------|
|----------------0---------------|--------0-------------------0---|
|----2-------2-------2-------2---|----0---------------------------|
|3-------3---------------3-------|--------------------------------|
|--------------------------------|3-------------------------------|

 G7                               C
|----3-----1-----0---------------|------3-----0----(0)------------|
|---------------------\3---------|1----------------(1)------------|
|--------0---------------0-------|--------0--------(0)------------|
|----0-------0-------0-------0---|----2-------2-------------------|
|--------------------------------|3-------------------------------|
|3---------------3---------------|--------------------3---2---1---|


 E7                               F
|----0-----0---------------------|--------------------------------|
|----------------3---------3b----|1-----------1-------1-1-----1h3-|
|----1-------1-------1-----------|------0-----0h2-----2-2-2-------|
|--------2-------2-------2-------|----3-----3-3-------3-3---------|
|--------------------------------|--------------------------------|
|0-------------------------------|1---------------1---------------|


 C               G                C
|0-------------------------0-----|----------------------------0-0-|
|----------1-----3-----------3---|1---------0-----------1-----1-1-|
|------0-----------------0-------|--------0-------------0---0-0-0-|
|----2-------2-------0-----------|----0h2----\0-----------2---2-2-|
|3-------------------------------|3---------------3---------------|
|----------------3---------------|--------------------------------|



... If you want to support a contributor like me, check out the complete tab
    on my own site, where you will get both detailed pdfs and sound-files:


      www.playlikethegreats.com/julian-lage/freight-train


   Musical regards,
   Maitinin
   August, 2016
Suggest correction
Give kudos to tab author, rate the tab!
1 2 3 4 5
comments
print report bad tab
guest
You may want to rate the tab now too:
select rating
Wanna post a correction for this tab? Suggest correction