Oops, an error
Loading. Please wait.

Harlem Blues tab

406 views 3 this week
no commentswrite comment
1 2 3 4 5
1 last vote to show rating
add to favorites
×
Save as Personal and add changes to this tab that will be seen only by you. Learn more ›
×
You can save this tab as Personal to edit and correct it or add notes. All changes will be seen only by you. Learn more »
launch autoscroll
font size
0
reset
how to read this tab
guitar tuner
edit
Autoscroll
slow
fast
+/-
esc
set tempo
stop
Author
Difficulty
    __________________
   / Harlem Blues     /
  / Julian Lage      /
 / Arclight (2016)  /
/__________________/


  key:    D minor / G major / C major
  time:   4/4
  tempo:  Q=186 bpm, shuffled 8ths
  tuning: Standard tuning (E A D G B e)
  writer: Music by W. C. Handy (1923)

----------------------------------------------------------------------



[Intro]

|----5~~---------|----------------|----7~~---------|----------------|
|----------------|----------------|----------------|----------------|
|----7~~-------7-|7-------7-------|----7~~---------|7---7-----7-7---|
|----0-----------|0---0---0-0-0---|0---0-----------|0-------0-------|
|----------------|----------------|----------------|----------------|
|----------------|----------------|----------------|----------------|


|----6~~---------|----------------|----5~~---------|----------------|
|----------------|----------------|----------------|----------------|
|----7~~---------|----7-----7-7---|----7~~---------|7---------7-7-7-|
|0---0-----------|0-------0---0---|0---0-----------|----0---0---0-0-|
|----------------|----------------|----------------|----------------|
|----------------|----------------|----------------|----------------|


|----5~~---------|----------------|----7~~---------|----------------|
|----------------|----------------|----------------|----------------|
|----7~~---------|7---------------|7---7~~---------|----7-----7---7-|
|----0-----------|0-------0-0-0-0-|0---0-----------|0-------0---0---|
|0---------------|----------------|----------------|----------------|
|----------------|----------------|----------------|----------------|


|----6~~---------|----------6-----|----5~~---------|----------5\----|
|----------------|----------------|----------------|----------------|
|----7~~---------|----7-----------|----7~~---------|----------------|
|0---0-----------|0-------0---0---|0---0-----------|0---------------|
|----------------|----------------|----------------|----------------|
|----------------|----------------|----------------|----------------|



[A1]
 Dm               Gm7     A+       Dm
|--5-----1-------|----1---1---1---|----------------|----------------|
|3-----3---------|--3---3---------|3---------------|------------5---|
|----------------|----------------|--------2-------|----------------|
|----------------|----------------|------------3b--|0---------------|
|----------------|----------------|----------------|----------------|
|----------------|----------------|----------------|----------------|


 Fm               Bbm7    C+       Fm
|--8-----4-------|----4---4---4---|----------------|----------------|
|6-----6---------|--6---6---------|6-------6-------|------------9\--|
|----------------|----------------|--------4h5-----|----------------|
|----------------|----------------|----------------|6---------------|
|----------------|----------------|----------------|----------------|
|----------------|----------------|----------------|----------------|


 Dbmaj7  Fm       Bbm7             Ab      G7       C       E7
|---8----4-------|----4---4---4---|----------3-----|----------------|
|6-----6---------|--6---6---------|6---------------|5-------5-------|
|----------------|----------------|----5---4-------|----------------|
|----------------|----------------|----6---5-------|5-------6-------|
|----------------|----------------|----------------|----------------|
|----------------|----------------|----------------|----------------|


 A7      D7       G7      A+       Dm
|---7----5-------|----1---1---1b--|----------------|----------------|
|5-----5---------|--3---3---------|3---------------|--------5---4---|
|----------------|----------------|--------2-------|----------------|
|5-------4-------|3---------------|------------3b--|0---------------|
|----------------|----------------|----------------|----------------|
|----------------|----------------|----------------|----------------|



... If you want to support a contributor like me, check out the complete tab
    on my own site, where you will get both detailed pdfs and sound-files:


       www.playlikethegreats.com/julian-lage/harlem-blues


    Musical regards,
    Maitinin
    April, 2016 "

            
            
Suggest correction
Creating personal tab
Creating personal tab
You can edit any tab online and save it as your Personal.

You can edit, replace or remove any tab part or add personal notes – all changes will be seen only by you.

Personal tabs can be accessed anytime from any device, even offline.
Learn more »
Give kudos to tab author, rate the tab!
1 2 3 4 5
comments
print report bad tab
guest
You may want to rate the tab now too:
select rating
Wanna post a correction for this tab? Suggest correction