Oops, an error
Loading. Please wait.

Nocturne tab

5,869 views 114 this week
no commentswrite comment
1 2 3 4 5
x 5
add to favorites
×
Save as Personal and add changes to this tab that will be seen only by you. Learn more ›
×
You can save this tab as Personal to edit and correct it or add notes. All changes will be seen only by you. Learn more »
launch autoscroll
font size
0
reset
how to read this tab
guitar tuner
edit
Autoscroll
slow
fast
+/-
esc
set tempo
stop
Author
Difficulty
    __________________
   / Nocturne         /
  / Julian Lage      /
 / Arclight (2016)  /
/__________________/


  key:     Bbm minor
  time:    4/4
  tempo:   Q=110 bpm, shuffled 8ths
  tuning:  Standard tuning (E A D G B e)
  writers: Spike Hughes and His Negro Orchestra (1933)

  Think of the guitar part as a melody harmonized in two or more lines, yet
  played by this single guitar, which is a typical Julian Lage-style trait.
  Use a pick and add finger-picking on those secondary harmony lines.

-------------------------------------------------------------------------------


          [A1]

           Bbm     Ab       Db6              Bbm     Ab       Db6
-----4~--||6-----------4---|--------------4-|6~--6~--6--8--4-|----------------|
-/6------||----------------|6-----------6---|----------------|6~--------------|
---------||6-------5-------|----------------|----------------|------3------6h8|
---------||----------------|6---------------|----------------|---6------------|
---------||----------------|----------------|----------------|----------------|
---------||----------------|----------------|----------------|----------------|


 Gbmaj7  F7        Bbm     Gb       Ebm       Ab       Db       F
|-----------------|----------------|------------------|-------------4---|
|6----------------|----------------|------------------|--------/6-------|
|------------\8-6-|----------------|--6-8-8b9r8-----6~|~~----3----------|
|------8-7--------|----8---------7-|8-------------8---|-----------------|
|----------8------|----------------|------------------|-----------------|
|-----------------|----------------|------------------|-----------------|


[A2]

  Bbm     Ab       Db6              Bbm     Ab       Db6
||6-----------4---|--------------4-|6~--6~--6-/8--4-|-----------------|
||----------------|6-----------6---|----------------|6~-----------2/4/|
||6-------5-------|--------3-------|6~--6~--6-/8--5-|------3----------|
||----------------|6---------6-----|----------------|6~------6--------|
||----------------|----------------|----------------|-----------------|
||----------------|----------------|----------------|-----------------|


 Gbmaj7  F7        Bbm     Gb       Ebm       Ab       Db
|-----------------|----------------|------------------|----------------|
|6~---------------|----------------|------------------|--------------0-|
|------------\8-6-|------------6---|--6-8-8b9-8-----6~|~~----3-----1---|
|------8-7--------|----8-----8---7-|8-------------8---|--------2-3-----|
|----------8------|--------9-------|------------------|----------------|
|-----------------|----------------|------------------|----------------|



...If you want to support a contributor like me, check out the full tab
   on my own site, where you will get both detailed pdfs and sound-files:


      www.playlikethegreats.com/julian-lage/nocturne


   Musical regards,
   Maitinin
   April, 2016 "

            
            
Suggest correction
Creating personal tab
Creating personal tab
You can edit any tab online and save it as your Personal.

You can edit, replace or remove any tab part or add personal notes – all changes will be seen only by you.

Personal tabs can be accessed anytime from any device, even offline.
Learn more »
comments
print report bad tab
guest
You may want to rate the tab now too:
select rating
Wanna post a correction for this tab? Suggest correction