Oops, an error
Loading. Please wait.

Ryland tab

4,054 views 60 this week
no commentswrite comment
1 2 3 4 5
x 6
add to favorites
×
Save as Personal and add changes to this tab that will be seen only by you. Learn more ›
×
You can save this tab as Personal to edit and correct it or add notes. All changes will be seen only by you. Learn more »
launch autoscroll
font size
0
reset
how to read this tab
guitar tuner
edit
Autoscroll
slow
fast
+/-
esc
set tempo
stop
Author
Difficulty
    __________________
   / Ryland           /
  / Julian Lage      /
 / Arclight (2016)  /
/__________________/


  key:    E major
  time:   6/8
  tempo:  E=110 bpm, shuffled 16ths
  tuning: Standard tuning (E A D G B e)
  writer: Julian Lage

  This guitar piece compromises both a melody on top and arpeggios below.
  Pick the arpeggios with a pick, and use finger-picking for the melody.
  Palm Mute the arpeggio notes and let the high melody notes ring freely.

--------------------------------------------------------------------------------



[A1]
 E                                     C#m
|------------------|------------------|------------------|------------------|
|12----------------|---------12----14\|9-----------------|---------9-----12\|
|---------9--------|----------------9-|---------6--------|---------------6--|
|------9-----9----9|------------9-----|------6-----6----6|------------6-----|
|---11---------11--|---11----11-------|---7-----------7--|---7-----7--------|
|-0----------------|12----12----------|9-----------------|9-----9-----------|


 A                                     F#7
|------------------|------------------|------------------|------------------|
|5-----------------|---------5-----9\-|2-----------------|---------2-----5~-|
|---------2--------|------------------|------------------|------------------|
|------2-----2----2|---------2--------|---------2--------|---------------2--|
|---4-----------4--|---4----4---4/-7--|---1-/4-----4--1--|---1-----1-/4-----|
|5-----------------|5-----5-----------|2-----------------|2-----2-----------|


 E                  G#                 A6                 F#m7b5      Bsus4
|------------------|---------4^----3--|2-----------------|------------------|
|0--------0^-----0-|1------1-1^-------|2-----5\-2--------|------------------|
|---------1^---1---|-----1---1^-------|2-----------2-----|------------------|
|------2-----2-----|---1-----1^-1-----|2-------------2---|------------2--4--|
|---2--------------|x-----------------|0---------------3-|------------------|
|0-----------------|4-----------------|------------------|2-----------------|


 E                  Aadd9/C# A/B       E          Esus4       E
|--------/4--------|------------------|0--------------0-0-0-0|0----------------|
|---------x--------|5--------2^-------|-------0---0---0-0-0-0|0----------------|
|--------/4--------|4--------2^----4--|-------1---1h2-----2--|1-------x--------|
|6-----2-----2-----|7-----7\-2^-------|-----2-2-2------------|--------x--2-----|
|2------2-------2--|4--------2^-------|---2------------------|--------2--2-----|
|0-----------------|------------------|0---------------------|-------------/4--|



... If you want to support a contributor like me, check out the complete tab
    on my own site, where you will get both detailed pdfs and sound-files:


      www.playlikethegreats.com/julian-lage/ryland-arclight


    Musical regards,
    Maitinin
    April, 2016 "

            
            
Suggest correction
Creating personal tab
Creating personal tab
You can edit any tab online and save it as your Personal.

You can edit, replace or remove any tab part or add personal notes – all changes will be seen only by you.

Personal tabs can be accessed anytime from any device, even offline.
Learn more »
comments
print report bad tab
guest
You may want to rate the tab now too:
select rating
Wanna post a correction for this tab? Suggest correction