Oops, an error
Loading. Please wait.

Back Then Chords

version 2
version 2

Whole song

5,653 views 6 this week
1 commentread comment
1 2 3 4 5
excellent!
x 11
add to favorites
launch autoscroll
font size
0
reset
transpose
0
reset
display chords
guitar tuner
Autoscroll
slow
fast
+/-
esc
set tempo
stop
Help us to improve Ultimate-Guitar.com Take our survey!
×
Author
Difficulty
novice
Back then- Julian Smith

C    Em     Am          F 
Show me the light, the picture
C    Em     Am      F 
I'll try my best to see
C    Em       Am     F 
What happened to us, baby
C    Em        Am   F 
I've lost the memories


e|-12-12-12-12-12-12-12-13-12-----------------------|
B|--13-13-13-13-13-13-13----------------------------|
G|--------------------------------------------------|
D|--------------------------------------------------|  x2
A|--------------------------------------------------|
E|--------------------------------------------------|



C Em      Am          F 
I understand you're worried
C     Em      Am       F 
This doesn't feel the same
C       Em      Am   
But I won't give up
F            C     
I won't give up
Em       Am          F
I'll try my best to see
C                Em
I don't wanna be sorry
Am              F
I don't wanna give in
C             Em                  Am           F
I just wanna remember what it was like back then
C                    Em       Am
I'm with you all the way out
             F
But all the way in
C            Em                   Am           F
I just wanna remember what it was like back then

e|-12-12-12-12-12-12-12-13-12-----------------------|
B|--13-13-13-13-13-13-13----------------------------|
G|--------------------------------------------------|
D|--------------------------------------------------|  x4
A|--------------------------------------------------|
E|--------------------------------------------------|



C       Em                  Am
I understand you're worried
             F              C      
This doesn't feel the same
            Em
But I won't give up
            Am
I'll try my best
C            Am
I won't give up
     C      Am 
I'll try my best
   C         Am 
I won't give up
     C      Am      C       Am       C        
I'll try my best to see, to see, to see
C                Em
I don't wanna be sorry
Am                 F
I don't wanna give in
C              Em                  Am          F
I just wanna remember what it was like back then
C                    Em      Am
I'm with you all the way out
           F
But on the way in
C            Em                    Am          F
 I just wanna remember what it was like back then

e|-12-12-12-12-12-12-12-13-12-----------------------|
B|--13-13-13-13-13-13-13----------------------------|
G|--------------------------------------------------|
D|--------------------------------------------------|  (play until the end)
A|--------------------------------------------------|
E|--------------------------------------------------|
Suggest correction
What's this?
You can suggest a correction to this tab. Community and Mods will review your correction and vote to approve or reject it.
comments
print report bad tab
1 comment total.
+5 reply
linkededits 21 wrote on July 29 2013, 09:30 am

e|-12-12-12-12-12-12-13-13-12-----------------------|
B|--13-13-12-12-13-13-13----------------------------|
G|--------------------------------------------------|
D|--------------------------------------------------|
A|--------------------------------------------------|
E|--------------------------------------------------|

I personally think that one works/sounds a lot better.

guest
You may want to rate the tab now too:
select rating
Please do not post tabs as comments. Select "correction" instead!