Oops, an error
Loading. Please wait.

Jellyfish Tab

version 4
version 4

Interactive

2,641 views 1 this week
1 commentread comment
1 2 3 4 5
excellent!
x 3
add to favorites
launch autoscroll
font size
0
reset
how to read this tab
guitar tuner
Tab Pro tools
  • play this tab
  • loop segment
  • change instrument
  • show fretboard
  • metronome
×
Best way to learn
"Jellyfish"
Autoscroll
slow
fast
+/-
esc
set tempo
stop
Contributor
-------------------------------------------------------------------------------
                             JELLYFISH - Julian Smith
-------------------------------------------------------------------------------
Tabbed by: Kaitlynr94@aol.com

Tuning: Standard

This tab can also be played on bass because it only uses E and A!
Don't let any notes ring except the 6 where it says 'slight bend.'

PART A (x 2)
e|-------------------------------------|
B|-------------------------------------|
G|-------------------------------------|
D|-------------------------------------|
A|-------------------------------------|
E|---8-8-8--8--8-8---------------------|


e|-------------------------------------|
B|-------------------------------------|
G|-------------------------------------|
D|-------------------------------------|
A|--------10-10------10----------------|
E|---8-8----------8--------------------|


e|-------------------------------------|
B|-------------------------------------|
G|-------------------------------------|
D|-------------------------------------|
A|--------10-10------10----------------|
E|---8-8----------8--------------------|


e|-------------------------------------|
B|-------------------------------------|
G|-------------------------------------|
D|-------------------------------------|
A|---6-6--10-10---6--10----------------|
E|-------------------------------------|


e|-------------------------------------|
B|-------------------------------------|
G|-------------------------------------|
D|-------------------------------------|
A|---5-5---8--8---5--8-----------------|
E|-------------------------------------|

PART B
e|-------------------------------------|
B|-------------------------------------|
G|-------------------------------------|
D|-------------------------------------|
A|-------------------------------------|
E|---8-8-------------------------------|


e|-------------------------------------|
B|-------------------------------------|
G|-------------------------------------|
D|-------------------------------------|
A|---------------6---------------------|
E|---8-8-------------------------------|
                 ^ slight bend

e|-------------------------------------|
B|-------------------------------------|
G|-------------------------------------|
D|-------------------------------------|
A|-------------------------------------|
E|---8-8-------------------------------|

(PART A) (x 3, but skip the last 5-5---8--8---5--8)
comments
We did not receive enough feedback on this tab! Please rate:
print report bad tab
1 2 3 4 5
1 comment total.
0 reply
birte-elise wrote on November 25 2014, 01:40 pm

e|--------------------------------------------------------------------------------------|
B|--------------------------------------------------------------------------------------|
G|-----------------12--------------------------------12---------------------------------|
D|---8---10---10--------12---13---12---8---10---10--------13---12-----------------------|
A|--------------------------------------------------------------------------------------|
E|--------------------------------------------------------------------------------------|

Just thought i'd post the singing bit if you wanted to learn that as well :p

I want to post or [tab]
guest
You may want to rate the tab now too:
select rating
Please do not post tabs as comments. Select "correction" instead!