Oops, an error
Loading. Please wait.

Ill Be The Dj Tab

187 views 1 this week
no commentswrite comment
1 2 3 4 5
please rate
add to favorites
launch autoscroll
font size
0
reset
how to read this tab
guitar tuner
Autoscroll
slow
fast
+/-
esc
set tempo
stop
Help us to improve Ultimate-Guitar.com Take our survey!
×
Author
Difficulty
novice
Tuning:Standard

this song can either be played with power chords or normal chords, the verses sound a 
lot better with power chords, but you can do what you'd like
INTRO:

e|-----5---------5---------5---------5|
B|-3-3---3-3-3-3---3-3-3-3---3-3-3-3--|
G|------------------------------------|  keep playing this for as long as you'd like
D|------------------------------------|
A|------------------------------------|
E|------------------------------------|

1ST CHORUS RIFF:
                                G                  D                    A
e|---------------------------------------------------------------------------------------|
B|---------------------------------------------------------------------------------------|
G|--------------------------------------------------7--7--77--77-7-7----2--2--22--22-2-2-|
D|------------------------------5--5--55--55-5-5----7--7--77--77-7-7----2--2--22--22-2-2-|
A|------------------------------5--5--55--55-5-5----5--5--55--55-5-5----0--0--00--00-0-0-|
E|------------------------------3--3--33--33-3-3-----------------------------------------|
You be the driver I'll be the DJ...

CHORUS:
G
You keep us rollin' I'll keep us rockin'
D
we'll keep on goin' we'll never stop
         Am                              C
'till we run out of road, or wear out that stero


VERSE:
  G                    D                    A                    C
e|----------------------------------------------------------------------------------|
B|----------------------------------------------------------------------------------|
G|---------------------7--7--77--77-7-77----2--2--22--22-2-22----5--5--55--55-5-55--|
D|5--5--55--55-5-55----7--7--77--77-7-77----2--2--22--22-2-22----5--5--55--55-5-55--|    
 x2
A|5--5--55--55-5-55----5--5--55--55-5-55----0--0--00--00-0-00----3--3--33--33-3-33--|
E|3--3--33--33-3-33-----------------------------------------------------------------|
We're skippin town...

CHORUS:
G                                  D
You'll be the driver I'll be the DJ
Am
You pick the roads we take and i'll pick the
C
songs to play

G
You keep us rollin' I'll keep us rockin'
D
we'll keep on goin' we'll never stop
         Am                              C
'till we run out of road, or wear out that stero

VERSE:
  G                    D                    A                    C
e|----------------------------------------------------------------------------------|
B|----------------------------------------------------------------------------------|
G|---------------------7--7--77--77-7-77----2--2--22--22-2-22----5--5--55--55-5-55--|
D|5--5--55--55-5-55----7--7--77--77-7-77----2--2--22--22-2-22----5--5--55--55-5-55--|
A|5--5--55--55-5-55----5--5--55--55-5-55----0--0--00--00-0-00----3--3--33--33-3-33--|
E|3--3--33--33-3-33-----------------------------------------------------------------|
And later on...

MUSICAL INTERLUDE:
G, D, Am, C x2

BRIDGE:
     Am                        C
I'll play something fast, I'll play something slow
G                          D
we can make it all the way to the coast
      Am                 C
i got plenty of songs and nothing but time
       G                  D
got it all planned out, i hope you dont mind

CHORUS:
G                                  D
You'll be the driver I'll be the DJ
Am
You pick the roads we take and i'll pick the
C
songs to play

G
You keep us rollin' I'll keep us rockin'
D
we'll keep goin' we'll never stop
         Am                              C
'till we run out of road, or wear out that stero

G                                  D
You'll be the driver               I'll be the DJ
Am                                 C
You'll be the driver   I'll be the DJ

OUTRO:
  G                    D                    A                  D  G  Cadd9
e|-------------------------------------------------------------2--3--3-|
B|-------------------------------------------------------------3--3--3-|
G|---------------------7--7--77--77-7-77----2--2--22--22-2-22--2--0--0-|
D|5--5--55--55-5-55----7--7--77--77-7-77----2--2--22--22-2-22--0--0--2-|
A|5--5--55--55-5-55----5--5--55--55-5-55----0--0--00--00-0-00-----2--3-|
E|3--3--33--33-3-33-----------------------------------------------3----|
 oh oh-whoa...                                     I'll be the D  -  J
Suggest correction
Give kudos to tab author, rate the tab!
1 2 3 4 5
comments
print report bad tab
guest
You may want to rate the tab now too:
select rating
Wanna post a correction for this tab? Suggest correction