Oops, an error
Loading. Please wait.

All Hours tab

259 views 1 this week
no commentswrite comment
1 2 3 4 5
1 last vote to show rating
add to favorites
×
Save as Personal and add changes to this tab that will be seen only by you. Learn more ›
×
You can save this tab as Personal to edit and correct it or add notes. All changes will be seen only by you. Learn more »
launch autoscroll
font size
0
reset
how to read this tab
guitar tuner
edit
Autoscroll
slow
fast
+/-
esc
set tempo
stop
Capo 1
chords: Em Am G D C (relative to capo)

4 counts between each vertical line: |1,2,3,4| 


A good simple song to introduce picking :)
link: https://www.youtube.com/watch?v=FZo4NTP6Bqs

ENJOY! :)



[verse 1]
  Em                               Am
  Love  you       with   your      clo    -thes    on
e|--------------------------------|--------------------------------|
B|----------------0---------------|----------------1---------------|
G|--------0-----------------------|--------2-----------------------|
D|2-------------------------------|2-------------------------------|
A|--------------------------------|--------------------------------|
E|--------------------------------|--------------------------------|

  G                                D
        But      take'em           a-     -ll      off
e|--------------------------------|--------------------------------|
B|----------------0---------------|----------------3---------------|
G|--------0-----------------------|--------2-----------------------|
D|0-------------------------------|0-------------------------------|
A|--------------------------------|--------------------------------|
E|--------------------------------|--------------------------------|

  Em                               Am
  Don't  you      make   me        wa     -it      Though
e|--------------------------------|--------------------------------|
B|----------------0---------------|----------------1---------------|
G|--------0-----------------------|--------2-----------------------|
D|2-------------------------------|2-------------------------------|
A|--------------------------------|--------------------------------|
E|--------------------------------|--------------------------------|

  G                                D
         'Cause   every second's   Pa     -in     -ful     
e|--------------------------------|--------------------------------|
B|----------------0---------------|----------------3---------------|
G|--------0-----------------------|--------2-----------------------|
D|0-------------------------------|0-------------------------------|
A|--------------------------------|--------------------------------|
E|--------------------------------|--------------------------------|



[Pre Chorus]
  Em                               Am
  Wa     -ll's    could            toum   -ble     down, 
e|--------------------------------|--------------------------------|
B|----------------0---------------|----------------1---------------|
G|--------0-----------------------|--------2-----------------------|
D|2-------------------------------|2-------------------------------|
A|--------------------------------|--------------------------------|
E|--------------------------------|--------------------------------|

    G                                D
but we     -'d      still            sta    -y       up
  e|--------------------------------|--------------------------------|
  B|----------------0---------------|----------------3---------------|
  G|--------0-----------------------|--------2-----------------------|
  D|0-------------------------------|0-------------------------------|
  A|--------------------------------|--------------------------------|
  E|--------------------------------|--------------------------------|
 
  Em                               Am
  A-     -ll      night            cra    -shing   bodies, 
e|--------------------------------|--------------------------------|
B|----------------0---------------|----------------1---------------|
G|--------0-----------------------|--------2-----------------------|
D|2-------------------------------|2-------------------------------|
A|--------------------------------|--------------------------------|
E|--------------------------------|--------------------------------|

  G                                D
  ti     -ll      there's          ju     -st      one
e|--------------------------------|--------------------------------|
B|----------------0---------------|----------------3---------------|
G|--------0-----------------------|--------2-----------------------|
D|0-------------------------------|0-------------------------------|
A|--------------------------------|--------------------------------|
E|--------------------------------|--------------------------------|

  Em                               Am
                  We could be,    we could be      a-     -ll      
e|--------------------------------|--------------------------------|
B|----------------0---------------|----------------1---------------|
G|--------0-----------------------|--------2-----------------------|
D|2-------------------------------|2-------------------------------|
A|--------------------------------|--------------------------------|
E|--------------------------------|--------------------------------|

  G                                D
  the             ho              -ur     -s       You     and     me,
e|--------------------------------|--------------------------------|
B|----------------0---------------|----------------3---------------|
G|--------0-----------------------|--------2-----------------------|
D|0-------------------------------|0-------------------------------|
A|--------------------------------|--------------------------------|
E|--------------------------------|--------------------------------|

 Em                                Am
                  you and me,      you and me      A-     -ll      
e|--------------------------------|--------------------------------|
B|----------------0---------------|----------------1---------------|
G|--------0-----------------------|--------2-----------------------|
D|2-------------------------------|2-------------------------------|
A|--------------------------------|--------------------------------|
E|--------------------------------|--------------------------------|

  G                                D
  the             ho              -ur     -s
e|--------------------------------|--------------------------------|
B|----------------0---------------|----------------3---------------|
G|--------0-----------------------|--------2-----------------------|
D|0-------------------------------|0-------------------------------|
A|--------------------------------|--------------------------------|
E|--------------------------------|--------------------------------|



[Chorus]
  Em                               Am
          Hands   up      a-      -gainst  the     wall
e|--------------------------------|--------------------------------|
B|----------------0---------------|----------------1---------------|
G|--------0-----------------------|--------2-----------------------|
D|2-------------------------------|2-------------------------------|
A|--------------------------------|--------------------------------|
E|--------------------------------|--------------------------------|

  G                                D
          So      good     it's    cri    -mi     -nal
e|--------------------------------|--------------------------------|
B|----------------0---------------|----------------3---------------|
G|--------0-----------------------|--------2-----------------------|
D|0-------------------------------|0-------------------------------|
A|--------------------------------|--------------------------------|
E|--------------------------------|--------------------------------|


  Em                               Am
                  We could be,    we could be      a-     -ll      
e|--------------------------------|--------------------------------|
B|----------------0---------------|----------------1---------------|
G|--------0-----------------------|--------2-----------------------|
D|2-------------------------------|2-------------------------------|
A|--------------------------------|--------------------------------|
E|--------------------------------|--------------------------------|

  G                                D
  the             ho              -ur     -s      (You     and     me,)
e|--------------------------------|--------------------------------|
B|----------------0---------------|----------------3---------------|
G|--------0-----------------------|--------2-----------------------|
D|0-------------------------------|0-------------------------------|
A|--------------------------------|--------------------------------|
E|--------------------------------|--------------------------------|

  Em                               Am
                  Oooooh                           Oooooh
e|--------------------------------|--------------------------------|
B|----------------0---------------|----------------1---------------|
G|--------0-----------------------|--------2-----------------------|
D|2-------------------------------|2-------------------------------|
A|--------------------------------|--------------------------------|
E|--------------------------------|--------------------------------|

  G                                D
                  Oooooh                           Oooooh
e|--------------------------------|--------------------------------|
B|----------------0---------------|----------------3---------------|
G|--------0-----------------------|--------2-----------------------|
D|0-------------------------------|0-------------------------------|
A|--------------------------------|--------------------------------|
E|--------------------------------|--------------------------------|

(^Ooooh progression x2^)

  Em                               Am
                  Oooooh                           a-     -ll      
e|--------------------------------|--------------------------------|
B|----------------0---------------|----------------1---------------|
G|--------0-----------------------|--------2-----------------------|
D|2-------------------------------|2-------------------------------|
A|--------------------------------|--------------------------------|
E|--------------------------------|--------------------------------|

  G                                D
  the             ho              -ur     -s       You     and     me, 
e|--------------------------------|--------------------------------|
B|----------------0---------------|----------------3---------------|
G|--------0-----------------------|--------2-----------------------|
D|0-------------------------------|0-------------------------------|
A|--------------------------------|--------------------------------|
E|--------------------------------|--------------------------------|

  Em                               Am
                  Oooooh                           a-     -ll      
e|--------------------------------|--------------------------------|
B|----------------0---------------|----------------1---------------|
G|--------0-----------------------|--------2-----------------------|
D|2-------------------------------|2-------------------------------|
A|--------------------------------|--------------------------------|
E|--------------------------------|--------------------------------|

  G                                D
  the             ho              -ur     -s       You     and     me, 
e|--------------------------------|--------------------------------|
B|----------------0---------------|----------------3---------------|
G|--------0-----------------------|--------2-----------------------|
D|0-------------------------------|0-------------------------------|
A|--------------------------------|--------------------------------|
E|--------------------------------|--------------------------------|



[Instrumental]
  Em                               Am
e|--------------------------------|--------------------------------|
B|----------------0---------------|----------------1---------------|
G|--------0-----------------------|--------2-----------------------|
D|2-------------------------------|2-------------------------------|
A|--------------------------------|--------------------------------|
E|--------------------------------|--------------------------------|

  G                                D
e|--------------------------------|--------------------------------|
B|----------------0---------------|----------------3---------------|
G|--------0-----------------------|--------2-----------------------|
D|0-------------------------------|0-------------------------------|
A|--------------------------------|--------------------------------|
E|--------------------------------|--------------------------------|



[Verse 2]
  Em                                Am
  I    got        what   we        bo     -th      need
e|--------------------------------|--------------------------------|
B|----------------0---------------|----------------1---------------|
G|--------0-----------------------|--------2-----------------------|
D|2-------------------------------|2-------------------------------|
A|--------------------------------|--------------------------------|
E|--------------------------------|--------------------------------|

  G                                D
         And      it ain't         bo     -ri     -ng
e|--------------------------------|--------------------------------|
B|----------------0---------------|----------------3---------------|
G|--------0-----------------------|--------2-----------------------|
D|0-------------------------------|0-------------------------------|
A|--------------------------------|--------------------------------|
E|--------------------------------|--------------------------------|

  Em                               Am
  Got   no        time   for       slo    -w      -ly
e|--------------------------------|--------------------------------|
B|----------------0---------------|----------------1---------------|
G|--------0-----------------------|--------2-----------------------|
D|2-------------------------------|2-------------------------------|
A|--------------------------------|--------------------------------|
E|--------------------------------|--------------------------------|

  G                                
          So      speed it up      o-     -n       me   
e|--------------------------------|--------------------------------|
B|----------------0---------------|--------------------------------|
G|--------0-----------------------|--------------------------------|
D|0-------------------------------|--------------------------------|
A|--------------------------------|--------------------------------|
E|--------------------------------|--------------------------------|




[Pre Chorus]
  Em                               Am
  Wa     -ll's    could            toum   -ble     down, 
e|--------------------------------|--------------------------------|
B|----------------0---------------|----------------1---------------|
G|--------0-----------------------|--------2-----------------------|
D|2-------------------------------|2-------------------------------|
A|--------------------------------|--------------------------------|
E|--------------------------------|--------------------------------|

    G                                D
but we     -'d      still            sta    -y       up
  e|--------------------------------|--------------------------------|
  B|----------------0---------------|----------------3---------------|
  G|--------0-----------------------|--------2-----------------------|
  D|0-------------------------------|0-------------------------------|
  A|--------------------------------|--------------------------------|
  E|--------------------------------|--------------------------------|
 
  Em                               Am
  A-     -ll      night            cra    -shing   bodies, 
e|--------------------------------|--------------------------------|
B|----------------0---------------|----------------1---------------|
G|--------0-----------------------|--------2-----------------------|
D|2-------------------------------|2-------------------------------|
A|--------------------------------|--------------------------------|
E|--------------------------------|--------------------------------|

  G                                D
  ti     -ll      there's          ju     -st      one
e|--------------------------------|--------------------------------|
B|----------------0---------------|----------------3---------------|
G|--------0-----------------------|--------2-----------------------|
D|0-------------------------------|0-------------------------------|
A|--------------------------------|--------------------------------|
E|--------------------------------|--------------------------------|

  Em                               Am
                  We could be,    we could be      a-     -ll      
e|--------------------------------|--------------------------------|
B|----------------0---------------|----------------1---------------|
G|--------0-----------------------|--------2-----------------------|
D|2-------------------------------|2-------------------------------|
A|--------------------------------|--------------------------------|
E|--------------------------------|--------------------------------|

  G                                D
  the             ho              -ur     -s       You     and     me,
e|--------------------------------|--------------------------------|
B|----------------0---------------|----------------3---------------|
G|--------0-----------------------|--------2-----------------------|
D|0-------------------------------|0-------------------------------|
A|--------------------------------|--------------------------------|
E|--------------------------------|--------------------------------|

 Em                                Am
                  you and me,      you and me      A-     -ll      
e|--------------------------------|--------------------------------|
B|----------------0---------------|----------------1---------------|
G|--------0-----------------------|--------2-----------------------|
D|2-------------------------------|2-------------------------------|
A|--------------------------------|--------------------------------|
E|--------------------------------|--------------------------------|

  G                                D
  the             ho              -ur     -s
e|--------------------------------|--------------------------------|
B|----------------0---------------|----------------3---------------|
G|--------0-----------------------|--------2-----------------------|
D|0-------------------------------|0-------------------------------|
A|--------------------------------|--------------------------------|
E|--------------------------------|--------------------------------|



[Chorus]
  Em                               Am
          Hands   up      a-      -gainst  the     wall
e|--------------------------------|--------------------------------|
B|----------------0---------------|----------------1---------------|
G|--------0-----------------------|--------2-----------------------|
D|2-------------------------------|2-------------------------------|
A|--------------------------------|--------------------------------|
E|--------------------------------|--------------------------------|

  G                                D
          So      good     it's    cri    -mi     -nal
e|--------------------------------|--------------------------------|
B|----------------0---------------|----------------3---------------|
G|--------0-----------------------|--------2-----------------------|
D|0-------------------------------|0-------------------------------|
A|--------------------------------|--------------------------------|
E|--------------------------------|--------------------------------|


  Em                               Am
                  We could be,    we could be      a-     -ll      
e|--------------------------------|--------------------------------|
B|----------------0---------------|----------------1---------------|
G|--------0-----------------------|--------2-----------------------|
D|2-------------------------------|2-------------------------------|
A|--------------------------------|--------------------------------|
E|--------------------------------|--------------------------------|

  G                                D
  the             ho              -ur     -s      (You     and     me,)
e|--------------------------------|--------------------------------|
B|----------------0---------------|----------------3---------------|
G|--------0-----------------------|--------2-----------------------|
D|0-------------------------------|0-------------------------------|
A|--------------------------------|--------------------------------|
E|--------------------------------|--------------------------------|

  Em                               Am
                  Oooooh                           Oooooh
e|--------------------------------|--------------------------------|
B|----------------0---------------|----------------1---------------|
G|--------0-----------------------|--------2-----------------------|
D|2-------------------------------|2-------------------------------|
A|--------------------------------|--------------------------------|
E|--------------------------------|--------------------------------|

  G                                D
                  Oooooh                           Oooooh
e|--------------------------------|--------------------------------|
B|----------------0---------------|----------------3---------------|
G|--------0-----------------------|--------2-----------------------|
D|0-------------------------------|0-------------------------------|
A|--------------------------------|--------------------------------|
E|--------------------------------|--------------------------------|

(Ooooh progression x2)

  Em                               Am
                  Oooooh                           a-     -ll      
e|--------------------------------|--------------------------------|
B|----------------0---------------|----------------1---------------|
G|--------0-----------------------|--------2-----------------------|
D|2-------------------------------|2-------------------------------|
A|--------------------------------|--------------------------------|
E|--------------------------------|--------------------------------|

  G                                D
  the             ho              -ur     -s       You     and     me, 
e|--------------------------------|--------------------------------|
B|----------------0---------------|----------------3---------------|
G|--------0-----------------------|--------2-----------------------|
D|0-------------------------------|0-------------------------------|
A|--------------------------------|--------------------------------|
E|--------------------------------|--------------------------------|

  Em                               Am
                  Oooooh                           a-     -ll      
e|--------------------------------|--------------------------------|
B|----------------0---------------|----------------1---------------|
G|--------0-----------------------|--------2-----------------------|
D|2-------------------------------|2-------------------------------|
A|--------------------------------|--------------------------------|
E|--------------------------------|--------------------------------|

  G                                D
  the             ho              -ur     -s       You     and     me, 
e|--------------------------------|--------------------------------|
B|----------------0---------------|----------------3---------------|
G|--------0-----------------------|--------2-----------------------|
D|0-------------------------------|0-------------------------------|
A|--------------------------------|--------------------------------|
E|--------------------------------|--------------------------------|



[bridge]
  C
                          Mm,                       don't make me 
e|--------------------------------|--------------------------------|
B|1-----------------------1-------|--------------------------------|
G|0-----------------------0-------|--------------------------------|
D|2-----------------------2-------|--------------------------------|
A|--------------------------------|--------------------------------|
E|--------------------------------|--------------------------------|

  C
 wait      Don't make me wait,     now baby
e|--------------------------------|--------------------------------|
B|1-----------------------1-------|--------------------------------|
G|0-----------------------0-------|--------------------------------|
D|2-----------------------2-------|--------------------------------|
A|--------------------------------|--------------------------------|
E|--------------------------------|--------------------------------|


  C
                          Make it hot and exclusive
e|--------------------------------|--------------------------------|
B|1-----------------------1-------|--------------------------------|
G|0-----------------------0-------|--------------------------------|
D|2-----------------------2-------|--------------------------------|
A|--------------------------------|--------------------------------|
E|--------------------------------|--------------------------------|


  Em                      C
  Ye eh,             you know how to do it
e|--------------------------------|--------------------------------|
B|0-----------------------1-------|--------------------------------|
G|0-----------------------0-------|--------------------------------|
D|2-----------------------2-------|--------------------------------|
A|--------------------------------|--------------------------------|
E|--------------------------------|--------------------------------|


  Em                      Am
  Mmm,                                       why   you   think   I'm 
e|--------------------------------|--------------------------------|
B|0-----------------------1-------|--------------------------------|
G|0-----------------------2-------|--------------------------------|
D|2-----------------------2-------|--------------------------------|
A|--------------------------------|--------------------------------|
E|--------------------------------|--------------------------------|

  Em                      D
  foolish,   think I'm foolish     baby
e|--------------------------------|--------------------------------|
B|0-----------------------3-------|--------------------------------|
G|0-----------------------2-------|--------------------------------|
D|2-----------------------0-------|--------------------------------|
A|--------------------------------|--------------------------------|
E|--------------------------------|--------------------------------|

  Em                      Am
                   Got my mind on your body
e|--------------------------------|--------------------------------|
B|0-----------------------1-------|--------------------------------|
G|0-----------------------2-------|--------------------------------|
D|2-----------------------2-------|--------------------------------|
A|--------------------------------|--------------------------------|
E|--------------------------------|--------------------------------|
  
  G                       D
                 And your body on my mind
e|--------------------------------|--------------------------------|
B|0-----------------------3-------|--------------------------------|
G|0-----------------------2-------|--------------------------------|
D|0-----------------------0-------|--------------------------------|
A|--------------------------------|--------------------------------|
E|--------------------------------|--------------------------------|




[outro]

  Em                               Am
e|--------------------------------|--------------------------------|
B|----------------0---------------|----------------1---------------|
G|--------0-----------------------|--------2-----------------------|
D|2-------------------------------|2-------------------------------|
A|--------------------------------|--------------------------------|
E|--------------------------------|--------------------------------|

  G                                D
                                                   On      my
e|--------------------------------|--------------------------------|
B|----------------0---------------|----------------3---------------|
G|--------0-----------------------|--------2-----------------------|
D|0-------------------------------|0-------------------------------|
A|--------------------------------|--------------------------------|
E|--------------------------------|--------------------------------|

  Em                               Am
  mi-     -       -               -nd
e|--------------------------------|--------------------------------|
B|----------------0---------------|----------------1---------------|
G|--------0-----------------------|--------2-----------------------|
D|2-------------------------------|2-------------------------------|
A|--------------------------------|--------------------------------|
E|--------------------------------|--------------------------------|
 
  G                                D
                  Got     your     body            on      my 
e|--------------------------------|--------------------------------|
B|----------------0---------------|----------------3---------------|
G|--------0-----------------------|--------2-----------------------|
D|0-------------------------------|0-------------------------------|
A|--------------------------------|--------------------------------|
E|--------------------------------|--------------------------------|

 Em                               Am
  Mi             -nd                               a-     -ll      
e|--------------------------------|--------------------------------|
B|----------------0---------------|----------------1---------------|
G|--------0-----------------------|--------2-----------------------|
D|2-------------------------------|2-------------------------------|
A|--------------------------------|--------------------------------|
E|--------------------------------|--------------------------------|

  G                                D
  the             ho              -ur     -s       You     and     me, 
e|--------------------------------|--------------------------------|
B|----------------0---------------|----------------3---------------|
G|--------0-----------------------|--------2-----------------------|
D|0-------------------------------|0-------------------------------|
A|--------------------------------|--------------------------------|
E|--------------------------------|--------------------------------|

Em                               Am
                  Oooooh                           a-     -ll      
e|--------------------------------|--------------------------------|
B|----------------0---------------|----------------1---------------|
G|--------0-----------------------|--------2-----------------------|
D|2-------------------------------|2-------------------------------|
A|--------------------------------|--------------------------------|
E|--------------------------------|--------------------------------|

  G                                D
  the             ho              -ur     -s       You     and     me, 
e|--------------------------------|--------------------------------|
B|----------------0---------------|----------------3---------------|
G|--------0-----------------------|--------2-----------------------|
D|0-------------------------------|0-------------------------------|
A|--------------------------------|--------------------------------|
E|--------------------------------|--------------------------------|

  Em                               Am
                  La-la-la-la
e|--------------------------------|--------------------------------|
B|----------------0---------------|----------------1---------------|
G|--------0-----------------------|--------2-----------------------|
D|2-------------------------------|2-------------------------------|
A|--------------------------------|--------------------------------|
E|--------------------------------|--------------------------------|

  G                                D
                  It's             cri    -mi     -nal
e|--------------------------------|--------------------------------|
B|----------------0---------------|----------------3---------------|
G|--------0-----------------------|--------2-----------------------|
D|0-------------------------------|0-------------------------------|
A|--------------------------------|--------------------------------|
E|--------------------------------|--------------------------------|

  Em                               Am
  Oh      yeah    It's             cri    -mi     -nal
e|--------------------------------|--------------------------------|
B|----------------0---------------|----------------1---------------|
G|--------0-----------------------|--------2-----------------------|
D|2-------------------------------|2-------------------------------|
A|--------------------------------|--------------------------------|
E|--------------------------------|--------------------------------|

  G                                D
                                                   So      good
e|--------------------------------|--------------------------------|
B|----------------0---------------|----------------3---------------|
G|--------0-----------------------|--------2-----------------------|
D|0-------------------------------|0-------------------------------|
A|--------------------------------|--------------------------------|
E|--------------------------------|--------------------------------|


Em                               Am
                  Oooooh                           a-     -ll      
e|--------------------------------|--------------------------------|
B|----------------0---------------|----------------1---------------|
G|--------0-----------------------|--------2-----------------------|
D|2-------------------------------|2-------------------------------|
A|--------------------------------|--------------------------------|
E|--------------------------------|--------------------------------|

  G                                D
  the             ho              -ur     -s       You     and     me, 
e|--------------------------------|--------------------------------|
B|----------------0---------------|----------------3---------------|
G|--------0-----------------------|--------2-----------------------|
D|0-------------------------------|0-------------------------------|
A|--------------------------------|--------------------------------|
E|--------------------------------|--------------------------------|

Em                               Am
                  Oooooh                           a-     -ll      
e|--------------------------------|--------------------------------|
B|----------------0---------------|----------------1---------------|
G|--------0-----------------------|--------2-----------------------|
D|2-------------------------------|2-------------------------------|
A|--------------------------------|--------------------------------|
E|--------------------------------|--------------------------------|

  G                                D
  the             ho              -ur     -s       You     and     me, 
e|--------------------------------|--------------------------------|
B|----------------0---------------|----------------3---------------|
G|--------0-----------------------|--------2-----------------------|
D|0-------------------------------|0-------------------------------|
A|--------------------------------|--------------------------------|
E|--------------------------------|--------------------------------|

The End :)

            
            
Suggest correction
Creating personal tab
Creating personal tab
You can edit any tab online and save it as your Personal.

You can edit, replace or remove any tab part or add personal notes – all changes will be seen only by you.

Personal tabs can be accessed anytime from any device, even offline.
Learn more »
Give kudos to tab author, rate the tab!
1 2 3 4 5
comments
print report bad tab
guest
You may want to rate the tab now too:
select rating
Wanna post a correction for this tab? Suggest correction