Oops, an error
Loading. Please wait.

A Waltz For A Night tab

version 2
version 2

Whole song

65,608 views 159 this week
2 commentsread comments
1 2 3 4 5
x 43
add to favorites
×
Save as Personal and add changes to this tab that will be seen only by you. Learn more ›
×
You can save this tab as Personal to edit and correct it or add notes. All changes will be seen only by you. Learn more »
launch autoscroll
font size
0
reset
how to read this tab
guitar tuner
edit
Autoscroll
slow
fast
+/-
esc
set tempo
stop
Author
Difficulty
Unregistered
[Intro/Verse]

E|---3-3-|---2---|---0-0-|---2---|
B|---0-0-|---0---|---0-0-|---0---|
G|---0-0-|---0---|---0-0-|---0---|
D|-------|-------|-------|-------|
A|-------|-------|-------|-------|
E|-3-----|-2-----|-0-----|-2-----|

Let me sing you a waltz
Out of nowhere, out of my thoughts
Let me sing you a waltz
About this one night stand


[Bridge 1]

E|-----5-|-----4-|-----3-|-----2-|
B|-----5-|-----5-|-----5-|-----3-|
G|-----5-|-----5-|-----5-|-----2-|
D|-------|-------|-------|-------|
A|-------|-------|-------|-0-----|
E|-5-----|-4-----|-3-----|-------|

You were for me that night


[Verse]

Everything I always dreamt of in life
But now you're gone
You are far gone
All the way to your island of rain


[Bridge 1]

It was for you just a one night thing


[Verse]

But you were much more to me
Just so you know

I don't care what they say
I know what you meant for me that day


[Bridge 2/Change]

E|-----5-|-----4-|-----3-|-----4-|
B|-----5-|-----5-|-----5-|-----5-|
G|-----5-|-----5-|-----5-|-----5-|
D|-------|-------|-------|-------|
A|-------|-------|-------|-------|
E|-5-----|-4-----|-3-----|-4-----|

I just wanted another try


[Bridge 1]

I just wanted another night


[Verse]

Even if it doesn't seem quite right
You meant for me much more
Than anyone I've met before


[Bridge 1]

One single night with you little Jesse


[Verse]

Is worth a thousand with anybody
I have no bitterness, my sweet
I'll never forget this one night thing


[Bridge 1]

Even tomorrow, in other arms


[Verse]

My heart will stay yours until I die

Let me sing you a waltz
Out of nowhere, out of my blues
Let me sing you a waltz
About this lovely one night stand


[Outro]

E|-3-----|-2-----|-0-----|-2-----|
B|---0---|---0---|---0---|---0---|
G|-----0-|-----0-|-----0-|-----0-|
D|-------|-------|-------|-------|
A|-------|-------|-------|-------|
E|-3-----|-2-----|-0-----|-2-----|Repeat x1

Then End On G:
E|-3-----|
B|-0-----|
G|-0-----|
D|-0-----|
A|-------|
E|-3-----|

            
            
Suggest correction
Creating personal tab
Creating personal tab
You can edit any tab online and save it as your Personal.

You can edit, replace or remove any tab part or add personal notes – all changes will be seen only by you.

Personal tabs can be accessed anytime from any device, even offline.
Learn more »
comments
print report bad tab
2 comments total.
0 reply
megahitman 10 Aug 14, 2014 02:20 AM

thank you so much for this excellent tab!

0 reply
arma20044 10 Jul 07, 2016 03:26 AM

very nice dude

guest
Wanna post a correction for this tab? Suggest correction