Oops, an error
Loading. Please wait.

Main Theme Horizon Zero Dawn tab

1,501 views 54 this week
3 commentsread comments
1 2 3 4 5
x 6
add to favorites
×
Save as Personal and add changes to this tab that will be seen only by you. Learn more ›
×
You can save this tab as Personal to edit and correct it or add notes. All changes will be seen only by you. Learn more »
launch autoscroll
font size
0
reset
how to read this tab
guitar tuner
edit
Autoscroll
slow
fast
+/-
esc
set tempo
stop
Difficulty
e|------------------------------------------------------------------|
B|------------------------------------------------------------------|
G|------------------------------------------------------------------|
D|------------------------------------------------------------------|
A|--0-7-8-7---0-7-8-------0-10-8-8-------14-12-10-8-7-0--7-5-----5--|
E|-------------------7-8------------7--8----------------------3-----|

e|------------------------------------------------------------------|
B|------------------------------------------------------------------|
G|------------------------------------------------------------------|
D|------------------------------------------------------------------|
A|--0-7-8-7---0-7-8-------0-10-8-8-------14-12-10-8-7-12--7-5-10--8-|
E|-------------------7-8------------7--8----------------------------|

e|------------------------------------------------------------------|
B|------------------------------------------------------------------|
G|------------------------------------------------------------------|
D|------------------------------------------------------------------|
A|--0-7-8-7---0-7-8--------0-10-8-8-------14-12-8-10-8-7------------|
E|--------------------7-8------------7--8---------------------------|

e|------------------------------------------------------------------|
B|------------------------------------------------------------------|
G|------------------------------------------------9-7---------------|
D|-----------------------------------------------------5--7---------|
A|--0-7-8-------0-10-8-8-------14-12-10-8-7-12----------------------|
E|---------7-8------------7--8--------------------------------------|
Suggest correction
Creating personal tab
Creating personal tab
You can edit any tab online and save it as your Personal.

You can edit, replace or remove any tab part or add personal notes – all changes will be seen only by you.

Personal tabs can be accessed anytime from any device, even offline.
Learn more »
comments
print report bad tab
3 comments total.
0 reply
leo-i3 10 Mar 14, 2017 08:14 PM

Música fantástica. Grato pela tab!

0 reply
disasterman0927 10 Apr 21, 2017 11:38 PM

superthanks

0 reply
cos6 10 2 days ago

Very very nice dude! Thanks a lot

guest
Wanna post a correction for this tab? Suggest correction