Oops, an error
Loading. Please wait.

Personaliti Berubah Chords

764 views 1 this week
no commentswrite comment
1 2 3 4 5
please rate
add to favorites
launch autoscroll
font size
0
reset
transpose
0
reset
display chords
guitar tuner
Autoscroll
slow
fast
+/-
esc
set tempo
stop
Help us to improve Ultimate-Guitar.com Take our survey!
×
Intro : D , A , Bm , G x2

[Rangkap 1]
D                   A                 
 PERSONALITIKU BERUBAH,
             Bm
KERNA KUMAHUKAN IA,
    G  A
DISINI,
D                   A  
 DAN BILA AKHIR NANTI,
              Bm
SEMUA AKAN PERGI,
     G
KEMANA?


[Korus]
D                 A
SIANG MALAMKU HANCUR,
                    Bm              G  A
PABILA BAYANGANMU MUNCUL DI FIKIRANKU,
D                 A
SIANG MALAMKU HANCUR,
                  Bm               G  A
KERNA SEMUA MILIKKKU HILANG DARI SISI,


[Rangkap 2]
D             A
 KURASA BERSALAH,

PENUH DOSA,
  Bm
LEMAH,
       G A
KEPADAMU,
D                  A
 KULUAHKAN KATA AMPUN.
             Bm  G
BANTULAH DIRIKU,
A
KUHANCUR..


[Korus]
D                 A
SIANG MALAMKU HANCUR,
                    Bm              G  A
PABILA BAYANGANMU MUNCUL DI FIKIRANKU,
D                 A
SIANG MALAMKU HANCUR,
                  Bm                G  A
KERNA SEMUA MILIKKKU HILANG DARI SISI,

Solo
Guitar 2 Lead(Tab)
Guitar 1 (chord)

  D            A            Bm          G
E]--------------------------/7-10-7-5-3~-3-2-0---]
B]-2h3-5-7-5h7-5~-3-5-7-5-3--------------------3-]
G]-----------------------------------------------]Sambung 
D]-----------------------------------------------]
A]-----------------------------------------------]
e]-----------------------------------------------]

 D             A            Bm        G         A        
E]--------------------------/7-10-7-5-3~-2h3-5-3-2-0-2-3-2-0----]
B]-2h3-5-7-5h7-5~-3-5-7-5-3----------------------------------3~-]
G]--------------------------------------------------------------]
D]--------------------------------------------------------------]
A]--------------------------------------------------------------]
e]--------------------------------------------------------------]


D                     A                      Bm
 DAN JANGAN KAU BERTANYA KEMANA HILANGNYA SEMUA!
                        G  A
SEGALA YANG INDAH DISINI


D                  A
 SIANG MALAMKU HANCUR,
                    Bm               G  A
PABILA BAYANGANMU MUNCUL DI FIKIRANKU,
D                  A
 SIANG MALAMKU HANCUR,
                  Bm                 G  A
KERNA SEMUA MILIKKKU HILANG DARI SISI,
D                     A                      Bm
 DAN JANGAN KAU BERTANYA KEMANA HILANGNYA SEMUA!
                        G  A
SEGALA YANG INDAH DISINI
Suggest correction
Give kudos to tab author, rate the tab!
1 2 3 4 5
comments
print report bad tab
guest
You may want to rate the tab now too:
select rating
Please do not post tabs as comments. Select "correction" instead!