Oops, an error
Loading. Please wait.

Orphan Train chords

34 views 1 this week
no commentswrite comment
1 2 3 4 5
3 more votes to show rating
add to favorites
×
Save as Personal and add changes to this tab that will be seen only by you. Learn more ›
×
You can save this tab as Personal to edit and correct it or add notes. All changes will be seen only by you. Learn more »
launch autoscroll
font size
0
reset
transpose
0
reset
simplify chords
display chords
guitar tuner
edit
Autoscroll
slow
fast
+/-
esc
set tempo
stop
Author
Strumming
There is no strumming pattern for this song yet. and get +5 IQ
JULIE MILLER - ORPHAN TRAIN

album version - BROKEN THINGS
____________________________________
____________________________________

[CHORDS]

 Csus2 Bbsus2 Ebsus2 Fsus2 C5  C/G  F  Bb  Eb Bb*
e|------------------------------0---1--1---6--6--|
b|-3-----1------6------8--------1---1--3---8--6--|
g|-5-----3------8------10---5---0---2--3---8--7--|
d|-5-----3------8------10---5---2---3--3---8--8--|
a|-3-----1------6------8----3---3---3--1---6--8--|
e|------------------------------3---1---------6--|
__________________________________________________


[INTRO]

e|---------------------------------------------------------------|
b|---------------4--------------------------------------------3--|
g|---5-----3-------3-------12p10-----------5---3-----5-----5--5--|
d|-----5-----3-------3/10--------10-----5----5-----3---3h5----5--|
a|-3----------------------------------3-----------------------3--|
e|---------------------------------------------------------------|


[VERSE ONE]

     Csus2   Bbsus2 Ebsus2  Fsus2    Csus2    Bbsus2 C5  Csus2
Come all you broken hearted come and lay your burden down
     Csus2     Bbsus2      Ebsus2  Fsus2 Csus2     Bbsus2 Csus2
Come kings and queens come royal---ty    surrender up    your crown
     Csus2 Bbsus2  Ebsus2   Fsus2   Csus2    Bbsus2 C5   Csus2
Come empty handed  come with nothing of your own to claim
     Csus2  Bbsus2    Ebsus2 Fsus2    Csus2    Bbsus2 C5   C/G
Come naked  poor come like a child to ride the orphan train


[CHORUS]

     C/G              F
Come ride ride on the orphan train
         Bb
Put your ear to the track
        F
You can hear your name
     C/G              F
Come ride ride on the orphan train
      Eb       Bb*         C/G
It'll take you all the way home


[INTERLUDE]

e|--------------------3p1----------------------|
b|-----------3-4----------1--------------------|
g|-5-----3-------3----------3-5-5-5-3-----3h5--|
d|---5-----3-------3----------5-------3---3h5--|
a|----------------------------3---------3-3----|
e|---------------------------------------------|


[VERSE TWO]

    Csus2  Bbsus2  Ebsus2 Fsus2      Csus2      Bbsus2 C5  
The way is narrow  it is  steep that brings you to    the door
    Csus2  Bbsus2      Ebsus2 Fsus2        Csus2    Bbsus2 C5  
But love  awaits there to     embrace your heart forever---more


[CHORUS]

     C/G              F
Come ride ride on the orphan train
         Bb
Put your ear to the track
        F
You can hear your name
     C/G              F
Come ride ride on the orphan train
      Eb       Bb*         C/G
It'll take you all the way home


[INSTRUMENTAL]

Bbsus2 C F C 
Bbsus2 C F C
Bbsus2 C F C
Eb Bb* Csus2

e|------------------------------------------------------|
b|-3-------------4------6-------------------------------|
g|---5----3---3----3------5----------5--3---3-3h5-5-3-5-|
d|-----5----3--------3-------------5------3---3h5-5-3-5-|
a|--------------------------3--1/3------------3-----3---|
e|------------------------------------------------------|


[VERSE THREE]

     Csus2  Bbsus2   Ebsus2  Fsus2  Csus2      Bbsus2 Csus2
Come you   abandoned you  forsaken  friendless and    alone
     Csus2 Bbsus2    Ebsus2   Fsus2    Csus2        Bbsus2 Csus2
Come refu--gees left homesick for some place you've nev----er known
     Csus2   Bbsus2  Ebsus2 Fsus2    Csus2      Bbsus2  Csus2 Bbsus2
Here princes paupers crimi--nals and saints are all the same
   Csus2   Bbsus2    Ebsus2  Fsus2 Csus2  Bbsus2     C5
No more or less than God's beloved child aboard this train


[CHORUS]

     C/G              F
Come ride ride on the orphan train
         Bb
Put your ear to the track
        F
You can hear your name
     C/G              F
Come ride ride on the orphan train
      Eb       Bb          C/G
It'll take you all the way home
     C/G              F
Come ride ride on the orphan train
         Bb
Put your ear to the track
        F
You can hear your name
     C/G              F
Come ride ride on the orphan train
      Eb       Bb*         C/G
It'll take you all the way home
           Eb       Bb*         C/G
It's gonna take you all the way home
           Eb       Bb*         C/G
It's gonna take you all the way home

            
            
Suggest correction
Creating personal tab
Creating personal tab
You can edit any tab online and save it as your Personal.

You can edit, replace or remove any tab part or add personal notes – all changes will be seen only by you.

Personal tabs can be accessed anytime from any device, even offline.
Learn more »
Give kudos to tab author, rate the tab!
1 2 3 4 5
comments
print report bad tab
guest
You may want to rate the tab now too:
select rating
Wanna post a correction for this tab? Suggest correction