Oops, an error
Loading. Please wait.

This Machine Bass Tab

version 1
version 1

Whole song

Interactive

873 views 1 this week
no commentswrite comment
1 2 3 4 5
x 3
add to favorites
launch autoscroll
font size
0
reset
guitar tuner
Autoscroll
slow
fast
+/-
esc
set tempo
stop
Help us to improve Ultimate-Guitar.com Take our survey!
×
Author
-------------------------------------------------------------------------------
			     This Machine - Julien-K
-------------------------------------------------------------------------------

Tabbed By : Necrotic
e-mail: joelschwallier@gmail.com

Tuning: B Standard (5 String Standard)

Intro 0:17
D|----------------------------------------------------------------|
A|----------------------------------------------------------------|
E|----------------------------------------------------------------|
B|0-0-0-0-0-0-0-0-3-3-3-3-3-3-3-3-5-5-5-5-5-5-5-5-8-8-8-8-8-8-8-8-|

D|----------------------------------------------------------------|
A|----------------------------------------------------------------|
E|----------------------------------------------------------------|
B|0-0-0-0-0-0-7/3-3-3-3-3-3-3-3-3-1-1-1-1-1-1-1-1-1-1-1-1-1-1-1-1-|x2

Rest 2 Measures 

Verse
D|--------------------------------|--------------------------------|
A|--------------------------------|------5-5-5---------------------|
E|------7-7-7-----8-8-8-------7-7-|--------------------------------|
B|5-5-5-------5-5-------5-5-5-----|7-7-7-------7-7-8-8-8-6-6-6-6-6-|

D|--------------------------------|--------------------------------|
A|--------------------------------|------5-5-5---------------------|
E|------7-7-7-----8-8-8-------7-7-|----------------------7-7-7-7-7-|
B|5-5-5-------5-5-------5-5-5-----|7-7-7-------7-7-8-8-8-----------|x2

Chorus
D|----------------------------------------------------------------|
A|----------------------------------------------------------------|
E|----------------------------------------------------------------|
B|0-0-0-0-0-0-0-0-3-3-3-3-3-3-3-3-5-5-5-5-5-5-5-5-8-8-8-8-8-8-8-8-|

D|----------------------------------------------------------------|
A|----------------------------------------------------------------|
E|----------------------------------------------------------------|
B|0-0-0-0-0-0-7/3-3-3-3-3-3-3-3-3-1-1-1-1-1-1-1-1-1-1-1-1-1-1-1-1-|x2

Post-Chorus
D|-----------------------|
A|-----------------------|
E|-----------------------|
B|5---0-5---0---1--------|x2

Verse
D|--------------------------------|--------------------------------|
A|--------------------------------|------5-5-5---------------------|
E|------7-7-7-----8-8-8-------7-7-|--------------------------------|
B|5-5-5-------5-5-------5-5-5-----|7-7-7-------7-7-8-8-8-6-6-6-6-6-|

D|--------------------------------|--------------------------------|
A|--------------------------------|------5-5-5---------------------|
E|------7-7-7-----8-8-8-------7-7-|----------------------7-7-7-7-7-|
B|5-5-5-------5-5-------5-5-5-----|7-7-7-------7-7-8-8-8-----------|x2

Chorus
D|----------------------------------------------------------------|
A|----------------------------------------------------------------|
E|----------------------------------------------------------------|
B|0-0-0-0-0-0-0-0-3-3-3-3-3-3-3-3-5-5-5-5-5-5-5-5-8-8-8-8-8-8-8-8-|

D|----------------------------------------------------------------|
A|----------------------------------------------------------------|
E|----------------------------------------------------------------|
B|0-0-0-0-0-0-7/3-3-3-3-3-3-3-3-3-1-1-1-1-1-1-1-1-1-1-1-1-1-1-1-1-|x2

Rest 8 Measures

Post-Chorus
D|-----------------------|
A|-----------------------|
E|-----------------------|
B|5---0-5---0---1--------|x4

Rest 4 Measures

Verse

D|--------------------------------|--------------------------------|
A|--------------------------------|------5-5-5---------------------|
E|------7-7-7-----8-8-8-------7-7-|----------------------7-7-7-7-7-|
B|5-5-5-------5-5-------5-5-5-----|7-7-7-------7-7-8-8-8-----------|

D|--------------------------------|--------------------------------|
A|--------------------------------|------5-5-5---------------------|
E|------7-7-7-----8-8-8-------7-7-|--------------------------------|
B|5-5-5-------5-5-------5-5-5-----|7-7-7-------7-7-8-8-8-6-6-6-6-6-|

D|--------------------------------|--------------------------------|
A|--------------------------------|------5-5-5---------------------|
E|------7-7-7-----8-8-8-------7-7-|----------------------7-7-7-7-7-|
B|5-5-5-------5-5-------5-5-5-----|7-7-7-------7-7-8-8-8-----------|


Chorus/Outro
D|----------------------------------------------------------------|
A|----------------------------------------------------------------|
E|----------------------------------------------------------------|
B|0-0-0-0-0-0-0-0-3-3-3-3-3-3-3-3-5-5-5-5-5-5-5-5-8-8-8-8-8-8-8-8-|

D|----------------------------------------------------------------|
A|----------------------------------------------------------------|
E|----------------------------------------------------------------|
B|0-0-0-0-0-0-7/3-3-3-3-3-3-3-3-3-1-1-1-1-1-1-1-1-1-1-1-1-1-1-1-1-|x2


| /  slide up
| \  slide down
| h  hammer-on
| p  pull-off
| ~  vibrato
| +  harmonic
| x  Mute note
===============================================================================
Suggest correction
Give kudos to tab author, rate the tab!
1 2 3 4 5
comments
print report bad tab
guest
You may want to rate the tab now too:
select rating
Wanna post a correction for this tab? Suggest correction