Oops, an error
Loading. Please wait.

This Machine tab

version 1
version 1

Whole song

Interactive

870 views 6 this week
2 commentsread comments
1 2 3 4 5
x 3
add to favorites
×
Save as Personal and add changes to this tab that will be seen only by you. Learn more ›
×
You can save this tab as Personal to edit and correct it or add notes. All changes will be seen only by you. Learn more »
launch autoscroll
font size
0
reset
how to read this tab
guitar tuner
edit
Autoscroll
slow
fast
+/-
esc
set tempo
stop
Author
Difficulty
Intro & Chorus-
e---------------------------------------|
B---------------------------------------|
G--4--------7--------9--------12--------|
D--4--------7--------9--------12--------|
A--2--------5--------7--------10--------|
E--2-(X8)---5-(X8)---7-(X8)---10-(X8)---|

e---------------------------------------|
B---------------------------------------|
G--4------9-7--------5------------------|
D--4------9-7--------5------------------|
A--2------7-5--------3------------------|
E--2-(X6)-7-5-(X8)---3-(X16)------------|

Bridge-
e---------------------------------------|
B---------------------------------------|
G--9--4--9--4--5-----9--4--9--4--5------|
D--9--4--9--4--5-----9--4--9--4--5------|
A--7--2--7--2--3-----7--2--7--2--3------|
E--7--2--7--2--3-----7--2--7--2--3------|
 Visit Julien-K's site at http://www.julien-k.com/

            
            
Suggest correction
Creating personal tab
Creating personal tab
You can edit any tab online and save it as your Personal.

You can edit, replace or remove any tab part or add personal notes – all changes will be seen only by you.

Personal tabs can be accessed anytime from any device, even offline.
Learn more »
Give kudos to tab author, rate the tab!
1 2 3 4 5
comments
print report bad tab
2 comments total.
0 reply
j-boy199 140 Nov 03, 2006 08:32 AM

hey,this is a good tab,well worked out.I only have on suggestion for the bridge

your bridge:
e---------------------------------------|
B---------------------------------------|
G--9--4--9--4--5-----9--4--9--4--5------|
D--9--4--9--4--5-----9--4--9--4--5------|
A--7--2--7--2--3-----7--2--7--2--3------|
E--7--2--7--2--3-----7--2--7--2--3------|

my bridge
e---------------------------------------|
B--4-----4-----------4-----4------------|
G--4--4--4--4--5-----4--4--4--4--5------|
D--2--4--2--4--5-----2--4--2--4--5------|
A--2--2--2--3--3-----2--2--2--2--3------|
E-----2-----2--3--------2-----2--3------|

same sound,just easyer then sliding your fingers back and forward,but either way well done on this

0 reply
crystal63 20 Apr 24, 2007 07:54 AM

left out a lot

guest
You may want to rate the tab now too:
select rating
Wanna post a correction for this tab? Suggest correction