Oops, an error
Loading. Please wait.

This Machine Tab

version 2
version 2

Whole song

Interactive

1,950 views 3 this week
no commentswrite comment
1 2 3 4 5
excellent!
x 5
add to favorites
launch autoscroll
font size
0
reset
how to read this tab
guitar tuner
Autoscroll
slow
fast
+/-
esc
set tempo
stop
Help us to improve Ultimate-Guitar.com Take our survey!
×
Author
Difficulty
novice
This is the complete song!

chorus and intro:

e|---------------------------------------|
B|---------------------------------------|
G|---------------------------------------|
D|--4--------7--------9--------12--------|
A|--2--------5--------7--------10--------|
E|--2-(X8)---5-(X8)---7-(X8)---10-(X8)---|

e|-------------------------------|
B|-------------------------------|
G|-------------------------------|
D|--4------12-7--------5---------|
A|--2------10-5--------3---------|
E|--2-(X6)-10-5-(X8)---3-(X16)---|


Verse:

e|-----------------------------------------------------------|
B|-----------------------------------------------------------|
G|-----------------------------------------------------------|
D|-----------------------------------------------------------|
A|--------2-2-2---3-3-3---3-3-3-----5-5-5--------------------|
E|-0-0-0--------0-------0--------2--------2-3-3-3-2-2--------|


e|-----------------------------------------------------------|
B|-----------------------------------------------------------|
G|-----------------------------------------------------------|
D|-----------------------------------------------------------|
A|--------2-2-2---3-3-3---3-3-3-----5-5-5----------2---------|
E|-0-0-0--------0-------0--------2--------2-3-3-3------------|

fill in:
e|--------------------|
B|--------------------|
G|--------------------|
D|--9--4--9--4--5-----|
A|--7--2--7--2--3-----|
E|--7--2--7--2--3-----|


bridge:

e|---7-------10-------------|
B|-5---5---8----8-----------|
G|--------------------------|
D|--------------------------|
A|--------------------------|
E|--------------------------|

Suggest correction
comments
print report bad tab
guest
You may want to rate the tab now too:
select rating
Please do not post tabs as comments. Select "correction" instead!