Oops, an error
Loading. Please wait.

Blacktop tab

5,254 views 60 this week
1 commentread comment
1 2 3 4 5
x 12
add to favorites
×
Save as Personal and add changes to this tab that will be seen only by you. Learn more ›
×
You can save this tab as Personal to edit and correct it or add notes. All changes will be seen only by you. Learn more »
launch autoscroll
font size
0
reset
how to read this tab
guitar tuner
edit
Autoscroll
slow
fast
+/-
esc
set tempo
stop
[Intro]

e-|----------------|----------------|----------------|----------------|
b-|----------------|----------------|----------------|----------------|
g-|----------------|----------------|------0---------|----------------|
d-|------4-------4-|--------------4-|--------------4-|------4-------4-|
a-|--5-------5-----|--4---4---5-----|--5-------5-----|--5-------5-----|
D-|0---0-------0---|0---0---0---0---|0---0-------0---|0---0---0---0---|
   ^   ^   ^   ^    ^   ^   ^   ^    ^   ^   ^   ^    ^   ^   ^   ^   

e-|----------------|----------------|----------------|----------------|
b-|----------------|----------------|----------------|----------------|
g-|------0---------|----------------|----------------|----------------|
d-|----------4-----|--4-------4-----|------4-------4-|------4-------4-|
a-|--5-----------4-|------5-------5-|--5-------5-----|--5-------5-----|
D-|0---0---0---0---|0---0---0---0---|0---0---0---0---|0---0---0---0---|
   ^   ^   ^   ^    ^   ^   ^   ^    ^   ^   ^   ^    ^   ^   ^   ^   


[Verse 1]

e-|----------------|----------------|----------------|----------------|
b-|----------------|----------------|----------------|----------------|
g-|----------------|----------------|----------------|----------------|
d-|------4-------4-|------4-------4-|------4-------4-|------4-------4-|
a-|--5-------5-----|--5-------5-----|--5-------5-----|--5-------5-----|
D-|0---0---0---0---|0---0---0---0---|0---0---0---0---|0---0---0---0---|
   ^   ^   ^   ^    ^   ^   ^   ^    ^   ^   ^   ^    ^   ^   ^   ^   
   you think that there's a way i could ever get too far

e-|----------------|----------------|----------------|----------------|
b-|----------------|----------------|----------------|----------------|
g-|----------------|----------------|----------------|----------------|
d-|------4-------4-|------4-------4-|------4-------4-|------4-------4-|
a-|--5-------5-----|--5-------5-----|--5-------5-----|--5-------5-----|
D-|0---0---0---0---|0---0---0---0---|0---0---0---0---|0---0---0---0---|
   ^   ^   ^   ^    ^   ^   ^   ^    ^   ^   ^   ^    ^   ^   ^   ^   
   you'd ask me where i'd been like i ask you where you are

e-|----------------|----------------|----------------|----------------|
b-|----------------|----------------|----------------|----------------|
g-|----------------|----------------|----------------|----------------|
d-|------4-------4-|------4-------4-|------4-------4-|------4-------4-|
a-|--5-------5-----|--5-------5-----|--5-------5-----|--5-------5-----|
D-|0---0---0---0---|0---0---0---0---|0---0---0---0---|0---0---0---0---|
   ^   ^   ^   ^    ^   ^   ^   ^    ^   ^   ^   ^    ^   ^   ^   ^   
   i know you're in the pews the same as stools around the bar

e-|----------------|----------------|----------------|----------------|
b-|----------------|----------------|----------------|----------------|
g-|----------------|----------------|----------------|----------------|
d-|------4-------4-|------4-------4-|------4-------4-|------4---------|
a-|--5-------5-----|--5-------5-----|--5-------5-----|--5-------5-----|
D-|0---0---0---0---|0---0---0---0---|0---0---0---0---|0---0---0---0---|
   ^   ^   ^   ^    ^   ^   ^   ^    ^   ^   ^   ^    ^   ^   ^   ^   
   and i know i saw your hand when i went out and wrapped my car


[Chorus 1]

e-|----------------|--------|----------------|----------------|
b-|----------------|--------|----------------|----------------|
g-|----------------|--------|----------------|----------------|
d-|--0---0---------|--------|------4-------4-|------4---------|
a-|----------7---\-|--5-----|--5-------5-----|--5-------5-----|
D-|9---9-\-7---7-\-|5---5---|0---0---0---0---|0---0---0---0---|
   ^   ^   ^   ^    ^   ^    ^   ^   ^   ^    ^   ^   ^   ^   
   streetlamp                                 around the

e-|----------------|--------|----------------|----------------|
b-|----------------|--------|----------------|----------------|
g-|----------------|--------|----------------|------0---------|
d-|--0---0-------0-|--------|------4-------4-|----------4-----|
a-|----------7---\-|--5-----|--5-------5-----|--5-----------5-|
D-|9---9-\-7---7-\-|5---5---|0---0---0---0---|0---0---0---0---|
   ^   ^   ^   ^    ^   ^    ^   ^   ^   ^    ^   ^   ^   ^   
   streetlamp

e-|----------------|----------------|
b-|----------------|----------------|
g-|----------------|----------------|
d-|------4-------4-|------4-------4-|
a-|--5-------5-----|--5-------5-----|
D-|0---0---0---0---|0---0---0---0---|
   ^   ^   ^   ^    ^   ^   ^   ^       


[Verse 2]

e-|----------------|----------------|----------------|----------------|
b-|----------------|----------------|----------------|----------------|
g-|----------------|----------------|----------------|----------------|
d-|------4-------4-|------4-------4-|------4-------4-|------4-------4-|
a-|--5-------5-----|--5-------5-----|--5-------5-----|--5-------5-----|
D-|0---0---0---0---|0---0---0---0---|0---0---0---0---|0---0---0---0---|
   ^   ^   ^   ^    ^   ^   ^   ^    ^   ^   ^   ^    ^   ^   ^   ^   
   so i wrote you love letters and sung them in my house

e-|----------------|----------------|----------------|----------------|
b-|----------------|----------------|----------------|----------------|
g-|----------------|----------------|----------------|----------------|
d-|------4-------4-|------4-------4-|------4-------4-|------4-------4-|
a-|--5-------5-----|--5-------5-----|--5-------5-----|--5-------5-----|
D-|0---0---0---0---|0---0---0---0---|0---0---0---0---|0---0---0---0---|
   ^   ^   ^   ^    ^   ^   ^   ^    ^   ^   ^   ^    ^   ^   ^   ^   
   and all around the south the broken strings and amplifiers

e-|----------------|----------------|----------------|----------------|
b-|----------------|----------------|----------------|----------------|
g-|----------------|----------------|----------------|----------------|
d-|------4-------4-|------4-------4-|------4-------4-|------4-------4-|
a-|--5-------5-----|--5-------5-----|--5-------5-----|--5-------5-----|
D-|0---0---0---0---|0---0---0---0---|0---0---0---0---|0---0---0---0---|
   ^   ^   ^   ^    ^   ^   ^   ^    ^   ^   ^   ^    ^   ^   ^   ^   
   scream with holy noise in hope to draw you out

e-|----------------|----------------|----------------|----------------|
b-|----------------|----------------|----------------|----------------|
g-|----------------|----------------|----------------|----------------|
d-|------4-------4-|------4-------4-|------4-------4-|------4-------4-|
a-|--5-------5-----|--5-------5-----|--5-------5-----|--5-------5-----|
D-|0---0---0---0---|0---0---0---0---|0---0---0---0---|0---0---0---0---|
   ^   ^   ^   ^    ^   ^   ^   ^    ^   ^   ^   ^    ^   ^   ^   ^   
   if no one sings along in praise are you still proud when i


[Chorus 2]

e-|----------------|--------|----------------|----------------|
b-|----------------|--------|----------------|----------------|
g-|----------------|--------|----------------|----------------|
d-|--0---0---------|--------|------4-------4-|------4---------|
a-|----------7---\-|--5-----|--5-------5-----|--5-------5-----|
D-|9---9-\-7---7-\-|5---5---|0---0---0---0---|0---0---0---0---|
   ^   ^   ^   ^    ^   ^    ^   ^   ^   ^    ^   ^   ^   ^   
   open

e-|----------------|--------|----------------|----------------|
b-|----------------|--------|----------------|----------------|
g-|----------------|--------|----------------|----------------|
d-|--0---0---------|--------|------4-------4-|------4---------|
a-|----------7---\-|--5-----|--5-------5-----|--5-------5-----|
D-|9---9-\-7---7-\-|5---5---|0---0---0---0---|0---0---0---0---|
   ^   ^   ^   ^    ^   ^    ^   ^   ^   ^    ^   ^   ^   ^   
   my mouth

e-|----------------|--------|----------------|----------------|
b-|----------------|--------|----------------|----------------|
g-|----------------|--------|----------------|----------------|
d-|--0---0-------0-|------0-|------4-------4-|------4---------|
a-|----------7---\-|--5-----|--5-------5-----|--5-------5-----|
D-|9---9-\-7---7-\-|5---5---|0---0---0---0---|0---0---0---0---|
   ^   ^   ^   ^    ^   ^    ^   ^   ^   ^    ^   ^   ^   ^   
   oh

e-|----------------|--------|----------------|----------------|
b-|----------------|--------|----------------|----------------|
g-|----------------|--------|----------------|----------------|
d-|--0---0-------0-|------0-|------4-------4-|------4---------|
a-|----------7---\-|--5-----|--5-------5-----|--5-------5-----|
D-|9---9-\-7---7-\-|5---5---|0---0---0---0---|0---0---0---0---|
   ^   ^   ^   ^    ^   ^    ^   ^   ^   ^    ^   ^   ^   ^   
   come visit me


[Bridge 1]

e-|----------------|----------------|----------------|----------------|
b-|----------------|----------------|----------------|----------------|
g-|------0-------0-|------0-------0-|----------------|----------------|
d-|----------4-----|--4-------------|------4-------4-|------4-------4-|
a-|3---3---3---3---|----------------|--5-------5-----|--5-------5-----|
D-|----------------|5---5-------5---|0---0---0---0---|0---0---0---0---|
   ^   ^   ^   ^    ^   ^   ^   ^    ^   ^   ^   ^    ^   ^   ^   ^   
   come visit me

e-|----------------|----------------|----------------|----------------|
b-|----------------|----------------|----------------|----------------|
g-|------0-------0-|------0-------0-|----------------|----------------|
d-|--4-------4-----|--4-------4-----|------4-------4-|------4-------4-|
a-|3---3-------3---|----------------|--5-------5-----|--5-------5-----|
D-|----------------|5---5---5---5---|0---0---0---0---|0---0---0---0---|
   ^   ^   ^   ^    ^   ^   ^   ^    ^   ^   ^   ^    ^   ^   ^   ^   
   in the back of an ambulance

e-|----------------|----------------|----------------|----------------|
b-|----------------|----------------|----------------|----------------|
g-|------0-------0-|------0-------0-|----------------|----------------|
d-|----------4-----|--4-------4-----|------4-------4-|------4-------4-|
a-|3---3---3---3---|----------------|--5-------5-----|--5-------5-----|
D-|----------------|5---5---5---5---|0---0---0---0---|0---0---0---0---|
   ^   ^   ^   ^    ^   ^   ^   ^    ^   ^   ^   ^    ^   ^   ^   ^   
   saline communion

e-|----------------|----------------|
b-|----------------|----------------|
g-|------0-------0-|------0---------|
d-|----------4-----|--4-------4-----|
a-|3---3---3---3---|----------------|
D-|----------------|5---5-------5---|
   ^   ^   ^   ^    ^   ^   ^   ^    
   that i held like a sé-


[Chorus 3]

e-|----------------|--------|----------------|----------------|
b-|----------------|--------|----------------|----------------|
g-|----------------|--------|----------------|----------------|
d-|--0---0---------|--------|------4---------|------4---------|
a-|----------7---\-|--5-----|--5-------5---5-|--5-------5-----|
D-|9---9-\-7---7-\-|5---5---|0---0---0---0---|0---0---0---0---|
   ^   ^   ^   ^    ^   ^    ^   ^   ^   ^    ^   ^   ^   ^   
   -ance

e-|----------------|--------|----------------|----------------|
b-|----------------|--------|----------------|----------------|
g-|----------------|--------|----------------|----------------|
d-|--0---0-------0-|------0-|------4-------4-|------4---------|
a-|----------7---\-|--5-----|--5-------5-----|--5-------5-----|
D-|9---9-\-7---7-\-|5---5---|0---0---0---0---|0---0---0---0---|
   ^   ^   ^   ^    ^   ^    ^   ^   ^   ^    ^   ^   ^   ^   
   on the black top

e-|----------------|--------|----------------|----------------|
b-|----------------|--------|----------------|----------------|
g-|----------------|--------|--------------0-|----------------|
d-|--9---0---------|--------|------4---------|--4-------4-----|
a-|----------7---\-|--5-----|--5-------5-----|------5---------|
D-|9---9-\-7---7-\-|5---5---|0---0---0---0---|0---0---0---0---|
   ^   ^   ^   ^    ^   ^    ^   ^   ^   ^    ^   ^   ^   ^   
   the devil in my arms

e-|----------------|----------------|----------------|----------------|
b-|----------------|----------------|----------------|----------------|
g-|----------------|----------------|----------------|----------------|
d-|--0---0-------0-|------0-------0-|------0-------0-|------0-------0-|
a-|----------7---\-|--5-------5-----|--5-------5-----|--5-------5-----|
D-|9---9-\-7---7-\-|5---5---5---5---|5---5---5---5---|5---5---5---5---|
   ^   ^   ^   ^    ^   ^   ^   ^    ^   ^   ^   ^    ^   ^   ^   ^   
   says feed me to the wolves tonight

e-|----------------|----------------|
b-|----------------|----------------|
g-|--------------0-|----------------|
d-|------4---------|------4-------4-|
a-|--5-------5-----|--5-------5-----|
D-|0---0---0---0---|0---0---0---0---|
   ^   ^   ^   ^    ^   ^   ^   ^    


[Bridge 2]

e-|----------------|----------------|----------------|----------------|
b-|----------------|----------------|----------------|----------------|
g-|------0-------0-|------0-------0-|----------------|----------------|
d-|----------4-----|--4-------------|------4-------4-|------4-------4-|
a-|3---3---3---3---|----------------|--5-------5-----|--5-------5-----|
D-|----------------|5---5-------5---|0---0---0---0---|0---0---0---0---|
   ^   ^   ^   ^    ^   ^   ^   ^    ^   ^   ^   ^    ^   ^   ^   ^   
   come visit me

e-|----------------|----------------|----------------|----------------|
b-|----------------|----------------|----------------|----------------|
g-|------0-------0-|------0-------0-|----------------|----------------|
d-|----------4-----|--4-------4-----|------4-------4-|------4-------4-|
a-|3---3-------3---|----------------|--5-------5-----|--5-------5-----|
D-|----------------|5---5---5---5---|0---0---0---0---|0---0---0---0---|
   ^   ^   ^   ^    ^   ^   ^   ^    ^   ^   ^   ^    ^   ^   ^   ^   
   in the back of an ambulance

e-|----------------|----------------|----------------|----------------|
b-|----------------|----------------|----------------|----------------|
g-|------0-------0-|------0-------0-|----------------|----------------|
d-|--4-------4-----|--4-------4-----|------4-------4-|------4-------4-|
a-|3---3---3---3---|----------------|--5-------5-----|--5-------5-----|
D-|----------------|5---5---5---5---|0---0---0---0---|0---0---0---0---|
   ^   ^   ^   ^    ^   ^   ^   ^    ^   ^   ^   ^    ^   ^   ^   ^   
   saline communion

e-|----------------|----------------|
b-|----------------|----------------|
g-|------0-------0-|----------------|
d-|--4-------4-----|----------------|
a-|3---3---3---3---|----------------|
D-|----------------|5---------------|
   ^   ^   ^   ^    ^   ^   ^   ^    
   that i held like a sé-


[Chorus 4]

e-|----------------|--------|----------------|----------------|
b-|----------------|--------|----------------|----------------|
g-|----------------|--------|----------------|----------------|
d-|--0---0---------|--------|------4-------4-|------4---------|
a-|----------7---\-|--5-----|--5-------5-----|--5-------5-----|
D-|9---9-\-7---7-\-|5---5---|0---0---0---0---|0---0---0---0---|
   ^   ^   ^   ^    ^   ^    ^   ^   ^   ^    ^   ^   ^   ^   
   -ance

e-|----------------|--------|----------------|----------------|
b-|----------------|--------|----------------|----------------|
g-|----------------|--------|----------------|----------------|
d-|--0---0-------0-|------0-|------4---------|------4---------|
a-|----------7---\-|--5-----|--5-------5---5-|--5-------5-----|
D-|9---9-\-7---7-\-|5---5---|0---0---0---0---|0---0---0---0---|
   ^   ^   ^   ^    ^   ^    ^   ^   ^   ^    ^   ^   ^   ^   

e-|----------------|--------|----------------|----------------|
b-|----------------|--------|----------------|----------------|
g-|----------------|--------|----------------|----------------|
d-|--0---0-------0-|------0-|------4-------4-|------4---------|
a-|----------7---\-|--5-----|--5-------5-----|--5-------5-----|
D-|9---9-\-7---7-\-|5---5---|0---0---0---0---|0---0---0---0---|
   ^   ^   ^   ^    ^   ^    ^   ^   ^   ^    ^   ^   ^   ^   

e-|----------------|--------|----------------|----------------|
b-|----------------|--------|----------------|----------------|
g-|----------------|--------|----------------|----------------|
d-|------0-------0-|------0-|----------------|----------------|
a-|--9---\---7---\-|--5-----|----------------|----------------|
D-|9---9-\-7---7-\-|5---5---|0---------------|----------------|
   ^   ^   ^   ^    ^   ^    ^   ^   ^   ^    ^   ^   ^   ^   


************************************

| \    Slide down

************************************


 

            
            
Suggest correction
Creating personal tab
Creating personal tab
You can edit any tab online and save it as your Personal.

You can edit, replace or remove any tab part or add personal notes – all changes will be seen only by you.

Personal tabs can be accessed anytime from any device, even offline.
Learn more »
comments
print report bad tab
1 comment total.
+1 reply
surprisewalrus 70 Jul 18, 2016 06:58 PM

I LIVE AND DIE FOR ONESHOTNOTHING

guest
You may want to rate the tab now too:
select rating
Wanna post a correction for this tab? Suggest correction