Oops, an error
Loading. Please wait.

Everybody Does Live tab

version 2
version 2

Whole song

Video

  • A breakdown of the song with on-screen chord boxes, rhythm slashes and tab.
2,026 views 51 this week
no commentswrite comment
1 2 3 4 5
x 4
add to favorites
×
Save as Personal and add changes to this tab that will be seen only by you. Learn more ›
×
You can save this tab as Personal to edit and correct it or add notes. All changes will be seen only by you. Learn more »
launch autoscroll
font size
0
reset
how to read this tab
guitar tuner
edit
Autoscroll
slow
fast
+/-
esc
set tempo
stop
Based off of this performance: https://www.youtube.com/watch?v=LlVp9W6LvTQ

She plays it either in drop D or DADGAD, not too sure. The only thing it would change would be the
D chord in the bridge because you need to palm mute the top two strings for the entire rest of the song.
The picking is very loose and more or less just directed strumming. Full lyrics at the bottom.

[Intro]

E|----------------------------------------------|
B|----------------------------------------------|
G|-------10-----------------10----------10--10--|
D|-10--------10-------10--------10--10--10--10--|
A|-8---8-----7---7/8--0---0----h8-------8-------|
D|--------------------x---x----h8-------8-------| x4

[Verse] 

(Repeats the same phrase)

Let me
E|---------------------------------------|
B|---------------------------------------|
G|---10----10---10---------10---------10-|
D|---10----10---10---10--------10--------|
A|-8-8--------8------8---8-----7---7-----|
D|-8-8--------8--------------------------|
   pick through the empty     dirt and the

E|---------------------------------------|
B|---------------------------------------|
G|---10----10---10---------10---------10-|
D|---10----10---10---10--------10--------|
A|-8-8--------8------8---8-----7---7-----|
D|-8-8--------8--------------------------|
 rotten wood  and the shoddy work cause I'm

E|---------------------------------------|
B|---------------------------------------|
G|---10----10---10---------10---------10-|
D|---10----10---10---10--------10--------|
A|-8-8--------8------8---8-----7---7-----|
D|-8-8--------8--------------------------|
interested and our   carpenter     is so 

E|---------------------------------------|
B|---------------------------------------|
G|---10----10---10---------10---------10-|
D|---10----10---10---10--------10--------|
A|-8-8--------8------8---8-----7---7-----|
D|-8-8--------8--------------------------|
   elegant   at     placing   splinters

E|---------------------------------------|
B|---------------------------------------|
G|---10----10---10---------10---------10-|
D|---10----10---10---10--------10--------|
A|-8-8--------8------8---8-----7---7-----|
D|-8-8--------8--------------------------|
  right beneath my  nails      where  I


E|---------------------------------------|
B|---------------------------------------|
G|---10----10---10---------10---------10-|
D|---10----10---10---10--------10--------|
A|-8-8--------8------8---8-----7---7-----|
D|-8-8--------8--------------------------|
  cannot dig them out             the same


E|---------------------------------------|
B|---------------------------------------|
G|---10----10---10---------10---------10-|
D|---10----10---10---10--------10--------|
A|-8-8--------8------8---8-----7---7-----|
D|-8-8--------8--------------------------|
  briar's from your ribs           are the


E|---------------------------------------|
B|---------------------------------------|
G|---10----10---10---------10---------10-|
D|---10----10---10---10--------10--------|
A|-8-8--------8------8---8-----7---7-----|
D|-8-8--------8--------------------------|
  tinder in my father's house 


[Bridge]

E|-----------------------------------------------------------------|
B|-----------------------------------------------------------------|
G|-10---------10--------10-------10-----10--10-------10-------10---|
D|-10-----10---------10---10---10--10---10----10---10--10---10--10-|
A|-8------8--------8---------7----------8--------8--------7--------|
D|-8------8---------------------------8----------------------------|
and I   know                        I know

E|----------------------------------------------------------|
B|----------------------------------------------------------|
G|--10--10-------10-------10-----10--10-------10-------10---|
D|--10----10---10--10---10--10---10----10---10--10---10--10-|
A|--8--------8--------7----------8--------8--------7--------|
D|8----------------------------8----------------------------|
  I know                     I know                      and

E|----5---5--5---5---5-5------8------|
B|----6---6--6---6---6-6------8------|
G|----7---7--7---7---7-7------10-----|
D|-7--7---7--7---7---7-7------10-----|
A|-5--5---5--5---5---5-5------8------|
D|-0--0---0--0---0---0-0------0------|
I know    myself  better than anybody else and you're

E|------------------------------------------------------------------------------------|
B|------------------------------------------------------------------------------------|
G|-----10-10------10-10-----10-10-----10-10-----10-10------10-10-----10-10-----10-10--|
D|-----10-10------10-10-----10-10-----10-10-----10-10------10-10-----10-10-----10-10--|
A|-8-8-8-----7-7-7------0-0-0-----8-8-8-----8-8-8-----7-7-7------0-0-0-----8-8-8------|
D|----------------------0-0-0-----8-8-8--------------------------0-0-0-----8-8-8------|
   gonna run                                                              you're gonna

E|------------------------------------------------------------------------------------|
B|------------------------------------------------------------------------------------|
G|-----10-10------10-10-----10-10-----10-10-----10-10------10-10-----10-10-----10-10--|
D|-----10-10------10-10-----10-10-----10-10-----10-10------10-10-----10-10-----10-10--|
A|-8-8-8-----7-7-7------0-0-0-----8-8-8-----8-8-8-----7-7-7------0-0-0-----8-8-8------|
D|----------------------0-0-0-----8-8-8--------------------------0-0-0-----8-8-8------|
  run          when you find out who I am                            I know I'm

E|------------------------------------------------------------------------------------|
B|------------------------------------------------------------------------------------|
G|-----10-10------10-10-----10-10-----10-10-----10-10------10-10-----10-10-----10-10--|
D|-----10-10------10-10-----10-10-----10-10-----10-10------10-10-----10-10-----10-10--|
A|-8-8-8-----7-7-7------0-0-0-----8-8-8-----8-8-8-----7-7-7------0-0-0-----8-8-8------|
D|----------------------0-0-0-----8-8-8--------------------------0-0-0-----8-8-8------|
 a pile of filthy wreckage        you will wish you       never touched but you're gonna run

E|------------------------------------------------------------------------------------|
B|------------------------------------------------------------------------------------|
G|-----10-10------10-10-----10-10-----10-10-----10-10------10-10-----10-10-----10-10--|
D|-----10-10------10-10-----10-10-----10-10-----10-10------10-10-----10-10-----10-10--|
A|-8-8-8-----7-7-7------0-0-0-----8-8-8-----8-8-8-----7-7-7------0-0-0-----8-8-8------|
D|----------------------0-0-0-----8-8-8--------------------------0-0-0-----8-8-8------|
  when you find out who I am                                     yeah you're gonna run

E|-x--x--x--x--x--x--x--x--x--x--x--x--x--x--x--|
B|-x--x--x--x--x--x--x--x--x--x--x--x--x--x--x--|
G|-10-10-10-10-10-10-10-10-10-10-10-10-10-10-10-|
D|-10-10-10-10-10-10-10-10-10-10-10-10-10-10-10-|
A|-8--8--8--8--7--7--7--0--0--0--0--8--8--8--8--|
D|----------------------0--0--0--0--8--8--8--8--|
  It's alright everybody does

E|-x--x--x--x--x--x--x--x--x--x--x--x--x--x--x--|
B|-x--x--x--x--x--x--x--x--x--x--x--x--x--x--x--|
G|-10-10-10-10-10-10-10-10-10-10-10-10-10-10-10-|
D|-10-10-10-10-10-10-10-10-10-10-10-10-10-10-10-|
A|-8--8--8--8--7--7--7--0--0--0--0--8--8--8--8--|
D|----------------------0--0--0--0--8--8--8--8--|
                          yeah you're gonna run

E|-x--x--x--x--x--x--x--x--x--x--x--x--x--x--x--|
B|-x--x--x--x--x--x--x--x--x--x--x--x--x--x--x--|
G|-10-10-10-10-10-10-10-10-10-10-10-10-10-10-10-|
D|-10-10-10-10-10-10-10-10-10-10-10-10-10-10-10-|
A|-8--8--8--8--7--7--7--0--0--0--0--8--8--8--8--|
D|----------------------0--0--0--0--8--8--8--8--|
  It's alright everybody does

E|-x--x--x--x--x--x--x--x--x--x--x--x--x--x--x--|
B|-x--x--x--x--x--x--x--x--x--x--x--x--x--x--x--|
G|-10-10-10-10-10-10-10-10-10-10-10-10-10-10-10-|
D|-10-10-10-10-10-10-10-10-10-10-10-10-10-10-10-|
A|-8--8--8--8--7--7--7--0--0--0--0--8--8--8--8--|
D|----------------------0--0--0--0--8--8--8--8--|
                                you're gonna run

E|-x--x--x--x--x--x--x--x--x--x--x--x--x--x--x------|
B|-x--x--x--x--x--x--x--x--x--x--x--x--x--x--x------|
G|-10-10-10-10-10-10-10-10-10-10-10-10-10-10-10-10--|
D|-10-10-10-10-10-10-10-10-10-10-10-10-10-10-10-10--|
A|-8--8--8--8--7--7--7--0--0--0--0--8--8--8--8--8---|
D|----------------------0--0--0--0--8--8--8--8------|
 It's alright everybody does



************************************

| x   Dead note
| h   Hammer-on
| /   Slide up

************************************


Let me pick through the empty dirt
And the rotten wood and the shoddy work
Cause I'm interested, and our carpenter is so elegant at placing splinters
Right beneath my nails, where I cannot dig them out
But the same briars from your ribs are the tinder in my father's house

And I know, I know, I know, I know
I know myself better than anybody else
And you're gonna run
You're gonna run when you find out who I am
I know I'm a pile of filthy wreckage you will wish you'd never touched
But you're gonna run when you find out who I am
Yeah, you're gonna run

You're gonna run, it's alright, everybody does
You're gonna run, it's alright, everybody does
You're gonna run, it's alright, everybody does
You're gonna run, it's alright, everybody does
Suggest correction
Creating personal tab
Creating personal tab
You can edit any tab online and save it as your Personal.

You can edit, replace or remove any tab part or add personal notes – all changes will be seen only by you.

Personal tabs can be accessed anytime from any device, even offline.
Learn more »
comments
print report bad tab
guest
You may want to rate the tab now too:
select rating
Wanna post a correction for this tab? Suggest correction