Oops, an error
Loading. Please wait.

Funeral Pyre Live tab

9,655 views 153 this week
1 commentread comment
1 2 3 4 5
x 18
add to favorites
×
Save as Personal and add changes to this tab that will be seen only by you. Learn more ›
×
You can save this tab as Personal to edit and correct it or add notes. All changes will be seen only by you. Learn more »
launch autoscroll
font size
0
reset
how to read this tab
guitar tuner
edit
Autoscroll
slow
fast
+/-
esc
set tempo
stop
Based on NPR Tiny Desk performance:
https://www.youtube.com/watch?v=TaK9YgWhhP0

tune G string to G#


[Intro]

e-|------------------------------------------------------------------------|
b-|------------------------------------------------------------------------|
g#|------0-----------------0-----------------0-----------------0-----------|
d-|9-----------9--\--7-----------7--\--6-----------6-----4-----------4--\--|
a-|---11----11----\-----9-----9-----\-----7-----7-----------6-----6-----\--|
E-|0-----------------0-----------------0-----------------------------------|
   ^  '  '  '  '  '  ^  '  '  '  '  '  ^  '  '  '  '  '  ^  '  '  '  '  '  

e-|------------------------------------------------------------------------|
b-|------------------------------------------------------------------------|
g#|------0-----------------0-----------------0-----------------0-----------|
d-|2-----------2--/--7-----------7--\--2-----------2-----4-----------4-----|
a-|---4-----4-----------0-----0-----------------------------2-----2--------|
E-|---------------------------------------0-----0-----0--------------------|
   ^  '  '  '  '  '  ^  '  '  '  '  '  ^  '  '  '  '  '  ^  '  '  '  '  '  

e-|------------------------------------------------------------------------|
b-|------------------------------------------------------------------------|
g#|------0-----------------0-----------------------------------------------|
d-|2-----------2--/--4-----------4--/--7-----------------------------------|
a-|---0-----0-----------0-----0--------------------------------------------|
E-|------------------------------------------------------------------------|
   ^  '  '  '  '  '  ^  '  '  '  '  '  ^  '  '  '  '  '  ^  '  '  '  '  '  


[Verse]

e-|------------------------------------------------------------------------|
b-|------------------------------------------------------------------------|
g#|------0-----------------0-----------------0-----------------------------|
d-|9-----------9--\--7-----------7--\--6-----------6-----4-----------------|
a-|---11----11----\-----9-----9-----\-----7-----7-------(6)----------------|
E-|0-----------------0-----------------0-----------------------------------|
   ^  '  '  '  '  '  ^  '  '  '  '  '  ^  '  '  '  '  '  ^  '  '  '  '  '  
i wake up with the same pain every night

e-|------------------------------------------------------------------------|
b-|------------------------------------------------------------------------|
g#|---------0-----------------0-----------------0-----------------0--------|
d-|---2-----------2-----2-----------2-----2-----------2-----2-----------2--|
a-|4-----4-----4-----0-----0-----0-----------------------------------------|
E-|------------------------------------0-----0-----0-----0-----0-----0-----|
   ^  '  '  '  '  '  ^  '  '  '  '  '  ^  '  '  '  '  '  ^  '  '  '  '  '  
digging a hatchet in my left side

e-|------------------------------------------------------------------------|
b-|------------------------------------------------------------------------|
g#|---------0-----------------0-----------------0--------------------------|
d-|---2-----------2-----2-----------2-----2-----------2--------------------|
a-|------------------------------------------------------------------------|
E-|0-----0-----0-----0-----0-----0-----0-----0-----0-----0-----------------|
   ^  '  '  '  '  '  ^  '  '  '  '  '  ^  '  '  '  '  '  ^  '  '  '  '  '  
clearing my chest of something to burn

e-|------------------------------------------------------------------------|
b-|------------------------------------------------------------------------|
g#|---------0-----------------0-----------------0-----------------0--------|
d-|---2-----------2-----2-----------2-----2-----------2-----4-----------4--|
a-|4-----4-----4-----0-----0-----0-----------------------2-----2-----2-----|
E-|------------------------------------0-----0-----0-----------------------|
   ^  '  '  '  '  '  ^  '  '  '  '  '  ^  '  '  '  '  '  ^  '  '  '  '  '  
ash for a decorative urn you keep on your

e-|------------------------------------------------------------------------|
b-|------------------------------------------------------------------------|
g#|---------0-----------------0--------------------------------------------|
d-|---2-----------2/(4)-4-----------4-/6-----------------------------------|
a-|0-----0-----0-----0-----0-----0-----------------------------------------|
E-|------------------------------------------------------------------------|
   ^  '  '  '  '  '  ^  '  '  '  '  '  ^  '  '  '  '  '  ^  '  '  '  '  '  
mantlepiece like a trophy for everything


[Interlude] - 2x

e-|------------------------------------------------------------------------|
b-|---------0------------------0----------------0-----------------0--------|
g#|0-----------------0-----------------0-----------------0-----------------|
d-|---2-----------2-----2-----------2-----2-----------2-----2-----------2--|
a-|------------------------------------------------------------------------|
E-|0-----0-----0-----0-----0-----0-----0-----0-----0-----0-----0-----0-----|
   ^  '  '  '  '  '  ^  '  '  '  '  '  ^  '  '  '  '  '  ^  '  '  '  '  '  

e-|------------------------------------------------------------------------|
b-|---------0------------------0----------------0-----------------0--------|
g#|0-----------------0-----------------0-----------------0-----------------|
d-|---4-----------4-----4-----------4-----4-----------4-----4-----------4--|
a-|------------------------------------------------------------------------|
E-|4-----4-----4-----4-----4-----4-----4-----4-----4-----4-----4-----4-----|
   ^  '  '  '  '  '  ^  '  '  '  '  '  ^  '  '  '  '  '  ^  '  '  '  '  '  


[Verse]

e-|------------------------------------------------------|
b-|------------------------------------------------------|
g#|---------0-----------------0-----------------0--------|
d-|---2-----------2-----4-----------4-----2-----------2--|
a-|4-----4-----4-----6-----6-----6-----------------------|
E-|------------------------------------0-----0-----0-----|
   ^  '  '  '  '  '  ^  '  '  '  '  '  ^  '  '  '  '  '  
call me a coward but i'm too scared to leave

e-|------------------------------------------------------------------------|
b-|---------------------------0-----------------0-----------------0--------|
g#|---------0--------------------------------------------------------------|
d-|---2-----------2-----2-----------2-----2-----------2-----2-----------2--|
a-|0-----0-----0-----0-----0-----0-----0-----0-----0-----0-----0-----0-----|
E-|------------------------------------------------------------------------|
   ^  '  '  '  '  '  ^  '  '  '  '  '  ^  '  '  '  '  '  ^  '  '  '  '  '  

e-|------------------------------------------------------|
b-|------------------------------------------------------|
g#|---------0-----------------0-----------------0--------|
d-|---2-----------2-----4-----------4-----2-----------2--|
a-|4-----4-----4-----6-----6-----6-----------------------|
E-|------------------------------------0-----0-----0-----|
   ^  '  '  '  '  '  ^  '  '  '  '  '  ^  '  '  '  '  '  
cause i want you to be the last thing i see

e-|------------------------------------------------------------------------|
b-|---------------------------0-----------------0-----------------0--------|
g#|---------0--------------------------------------------------------------|
d-|---2-----------2-----2-----------2-----2-----------2-----2-----------2--|
a-|0-----0-----0-----0-----0-----0-----0-----0-----0-----0-----0-----0-----|
E-|------------------------------------------------------------------------|
   ^  '  '  '  '  '  ^  '  '  '  '  '  ^  '  '  '  '  '  ^  '  '  '  '  '  

e-|------------------------------------------------------|
b-|---------------------------------------------0--------|
g#|---------0-----------------0--------------------------|
d-|---2-----------2-----4-----------4-----2-----------2--|
a-|4-----4-----4-----6-----6-----6-----------------------|
E-|------------------------------------0-----0-----0-----|
   ^  '  '  '  '  '  ^  '  '  '  '  '  ^  '  '  '  '  '  
call me a coward but i'm too scared to leave

e-|------------------------------------------------------------------------|
b-|---------0-----------------0-----------------0-----------------0--------|
g#|------------------------------------------------------------------------|
d-|---2-----------2-----2-----------2-----2-----------2-----2-----------2--|
a-|0-----0-----0-----0-----0-----0-----0-----0-----0-----0-----0-----0-----|
E-|------------------------------------------------------------------------|
   ^  '  '  '  '  '  ^  '  '  '  '  '  ^  '  '  '  '  '  ^  '  '  '  '  '  

e-|------------------------------------------------------|
b-|---------0-----------------0-----------------0--------|
g#|------------------------------------------------------|
d-|---2-----------2-----4-----------4-----2-----------2--|
a-|4-----4-----4-----6-----6-----6-----------------------|
E-|------------------------------------0-----0-----0-----|
   ^  '  '  '  '  '  ^  '  '  '  '  '  ^  '  '  '  '  '  
watched you pouring lighter fluid out onto the leaves

e-|------------------------------------------------------------------------|
b-|---------0-----------------0-----------------0-----------------0--------|
g#|------------------------------------------------------------------------|
d-|---2-----------2/(4)-4-----------4/(6)-6-----------6/(7)-7-----------7--|
a-|0-----0-----0-----0-----0-----0-----0-----0-----0-----0-----0-----0-----|
E-|------------------------------------------------------------------------|
   ^  '  '  '  '  '  ^  '  '  '  '  '  ^  '  '  '  '  '  ^  '  '  '  '  '  

e-|------------------------------------------------------------------------|
b-|---------0-----------------0-----------------0-----------------0--------|
g#|------------------------------------------------------------------------|
d-|---9-----------9-----9-----------9-----9-----------9-----9-----------9--|
a-|0-----0-----0-----0-----0-----0-----0-----0-----0-----0-----0-----0-----|
E-|------------------------------------------------------------------------|
   ^  '  '  '  '  '  ^  '  '  '  '  '  ^  '  '  '  '  '  ^  '  '  '  '  '  
and i would have loved you with the

e-|------------------------------------------------------------------------|
b-|---------0-----------------0-----------------0-----------------0--------|
g#|------------------------------------------------------------------------|
d-|---9-----------9-----9-----------9-----9-----------9-----9-----------9--|
a-|------------------------------------------------------------------------|
E-|0-----0-----0-----0-----0-----0-----0-----0-----0-----0-----0-----0-----|
   ^  '  '  '  '  '  ^  '  '  '  '  '  ^  '  '  '  '  '  ^  '  '  '  '  '  
dying fire let you smother me

e-|------------------------------------------------------------------------|
b-|------------------------------------------------------------------------|
g#|------------------------------------------------------------------------|
d-|---4-----4-----4-----4-----4-----4-----4-----4-----4-----4-----4-----4--|
a-|2-----2-----2-----2-----2-----2-----2-----2-----2-----2-----2-----2-----|
E-|------------------------------------------------------------------------|
   ^  '  '  '  '  '  ^  '  '  '  '  '  ^  '  '  '  '  '  ^  '  '  '  '  '  
down to the ember frostbite turning my

e-|------------------------------------------------------------------------|
b-|------------------------------------------------------------------------|
g#|------------------------------------------------------------------------|
d-|---6-----6-----6-----2-----2-----2-----2-----2-----2-----4-----4-----4--|
a-|4-----4-----4-----0-----0-----0-----------------------2-----2-----2-----|
E-|------------------------------------0-----0-----0-----------------------|
   ^  '  '  '  '  '  ^  '  '  '  '  '  ^  '  '  '  '  '  ^  '  '  '  '  '  
limbs as black as cinder a funeral pyre

e-|------------------------------------------------------------------------|
b-|------------------------------------------------------------------------|
g#|---------0-----------------0-----------------0-----------------0--------|
d-|---2-----------2/(4)-4-----------4/(6)-6-----------6/(7)-7-----------7--|
a-|0-----0-----0-----0-----0-----0-----0-----0-----0-----0-----0-----0-----|
E-|------------------------------------------------------------------------|
   ^  '  '  '  '  '  ^  '  '  '  '  '  ^  '  '  '  '  '  ^  '  '  '  '  '  

e-|------------------------------------------------------------------------|
b-|------------------------------------------------------------------------|
g#|---------0-----------------0-----------------0-----------------0--------|
d-|---9-----------9-----9-----------9-----9-----------9-----9-----------9--|
a-|0-----0-----0-----0-----0-----0-----0-----0-----0-----0-----0-----0-----|
E-|------------------------------------------------------------------------|
   ^  '  '  '  '  '  ^  '  '  '  '  '  ^  '  '  '  '  '  ^  '  '  '  '  '  
and i would have stayed if you'd

e-|------------------------------------------------------------------------|
b-|------------------------------------------------------------------------|
g#|---------0-----------------0-----------------0-----------------0--------|
d-|---9-----------9-----9-----------9-----9-----------9-----9-----------9--|
a-|------------------------------------------------------------------------|
E-|0-----0-----0-----0-----0-----0-----0-----0-----0-----0-----0-----0-----|
   ^  '  '  '  '  '  ^  '  '  '  '  '  ^  '  '  '  '  '  ^  '  '  '  '  '  
asked me to stood outside til my

e-|------------------------------------------------------------------------|
b-|------------------------------------------------------------------------|
g#|---------0-----------------0-----------------0-----------------0--------|
d-|---4-----------4-----4-----------4-----4-----------4-----4-----------4--|
a-|2-----2-----2-----2-----2-----2-----2-----2-----2-----2-----2-----2-----|
E-|------------------------------------------------------------------------|
   ^  '  '  '  '  '  ^  '  '  '  '  '  ^  '  '  '  '  '  ^  '  '  '  '  '  
lips turned blue i wouldn't have blamed you

e-|------------------------------------------------------------------------|
b-|------------------------------------------------------------------------|
g#|---------0-----------------0-----------------0-----------------0--------|
d-|---6-----------6-----2-----------2-----2-----------2-----4-----------4--|
a-|4-----4-----4-----0-----0-----0-----------------------2-----2-----2-----|
E-|------------------------------------0-----0-----0-----------------------|
   ^  '  '  '  '  '  ^  '  '  '  '  '  ^  '  '  '  '  '  ^  '  '  '  '  '  
for leaving me there on the porch while you drank gasoline

e-|------------------------------------------------------------------------|
b-|------------------------------------------------------------------------|
g#|------------------------------------------------------------------------|
d-|------------------------------------------------------------------------|
a-|0-----------------------------------------------------------------------|
E-|------------------------------------------------------------------------|
   ^  '  '  '  '  '  ^  '  '  '  '  '  ^  '  '  '  '  '  ^  '  '  '  '  '  
cause it's what you needed so bad

e-|------------------------------------------------------------------------|
b-|------0-----------------0-----------------0-----------------0-----------|
g#|0-----------0-----0-----------0-----0-----------0-----0-----------0-----|
d-|---2-----2-----2-----2-----2-----2-----2-----2-----2-----2-----2-----2--|
a-|------------------------------------------------------------------------|
E-|0-----------0-----0-----------0-----0-----------0-----0-----------0-----|
   ^  '  '  '  '  '  ^  '  '  '  '  '  ^  '  '  '  '  '  ^  '  '  '  '  '  
it's true

e-|------------------------------------------------------------------------|
b-|------0-----------------0-----------------0-----------------0-----------|
g#|0-----------0-----0-----------0-----0-----------0-----0-----------0-----|
d-|---4-----4-----4-----4-----4-----4-----4-----4-----4-----4-----4-----4--|
a-|------------------------------------------------------------------------|
E-|4-----------4-----4-----------4-----4-----------4-----4-----------4-----|
   ^  '  '  '  '  '  ^  '  '  '  '  '  ^  '  '  '  '  '  ^  '  '  '  '  '  
there's nothing that

e-|------------------------------------------------------------------------|
b-|------0-----------------0-----------------0-----------------0-----------|
g#|0-----------0-----0-----------0-----0-----------0-----0-----------0-----|
d-|---2-----2-----2-----2-----2-----2-----2-----2-----2-----2-----2-----2--|
a-|------------------------------------------------------------------------|
E-|0-----------0-----0-----------0-----0-----------0-----0-----------0-----|
   ^  '  '  '  '  '  ^  '  '  '  '  '  ^  '  '  '  '  '  ^  '  '  '  '  '  
we could do

e-|------------------------------------------------------------------------|
b-|------0-----------------0-----------------0-----------------0-----------|
g#|0-----------0-----0-----------0-----0-----------0-----0-----------0-----|
d-|---4-----4-----4-----4-----4-----4-----4-----4-----4-----4-----4-----4--|
a-|------------------------------------------------------------------------|
E-|4-----------4-----4-----------4-----4-----------4-----4-----------4-----|
   ^  '  '  '  '  '  ^  '  '  '  '  '  ^  '  '  '  '  '  ^  '  '  '  '  '  


[Outro Loop] - 3x

e-|------------------------------------------------------------------------|
b-|------0-----------------0-----------------0-----------------0-----------|
g#|0-----------0-----0-----------0-----0-----------0-----0-----------0-----|
d-|---2-----2-----2-----2-----2-----2-----2-----2-----2-----2-----2-----2--|
a-|------------------------------------------------------------------------|
E-|0-----------0-----0-----------0-----0-----------0-----0-----------0-----|
   ^  '  '  '  '  '  ^  '  '  '  '  '  ^  '  '  '  '  '  ^  '  '  '  '  '  

e-|------------------------------------------------------------------------|
b-|------0-----------------0-----------------0-----------------0-----------|
g#|0-----------0-----0-----------0-----0-----------0-----0-----------0-----|
d-|---4-----4-----4-----4-----4-----4-----4-----4-----4-----4-----4-----4--|
a-|------------------------------------------------------------------------|
E-|4-----------4-----4-----------4-----4-----------4-----4-----------4-----|
   ^  '  '  '  '  '  ^  '  '  '  '  '  ^  '  '  '  '  '  ^  '  '  '  '  '  


[Over Outro Loop 1]

e-|------------------------------------------------------------------------|
b-|9-----9-----9-----7-----7-----7-----5-----5-----5--/--12----------12-\--|
g#|------------------------------------------------------------------------|
d-|------------------------------------------------------------------------|
a-|------------------------------------------------------------------------|
E-|------------------------------------------------------------------------|
   ^  '  '  '  '  '  ^  '  '  '  '  '  ^  '  '  '  '  '  ^  '  '  '  '  '  
e-|------------------------------------------------------------------------|
b-|4-----------------5-----------------7-----------------10----------------|
g#|------------------------------------------------------------------------|
d-|------------------------------------------------------------------------|
a-|------------------------------------------------------------------------|
E-|------------------------------------------------------------------------|
   ^  '  '  '  '  '  ^  '  '  '  '  '  ^  '  '  '  '  '  ^  '  '  '  '  '  


[Over Outro Loop 2]

e-|12----12----12----12----12----12----12----12----12----12----12----12----|
b-|---12----12----12----12----12----12----12----12----12----12----12----12-|
g#|------------------------------------------------------------------------|
d-|------------------------------------------------------------------------|
a-|------------------------------------------------------------------------|
E-|------------------------------------------------------------------------|
   ^  '  '  '  '  '  ^  '  '  '  '  '  ^  '  '  '  '  '  ^  '  '  '  '  '  

e-|11----11----11----11----11----11----11----11----11----11----11----11----|
b-|---12----12----12----12----12----12----12----12----12----12----12----12-|
g#|------------------------------------------------------------------------|
d-|------------------------------------------------------------------------|
a-|------------------------------------------------------------------------|
E-|------------------------------------------------------------------------|
   ^  '  '  '  '  '  ^  '  '  '  '  '  ^  '  '  '  '  '  ^  '  '  '  '  '



************************************

| (n)  Ghost note
| /    Slide up
| \    Slide down

************************************

            
            
Suggest correction
Creating personal tab
Creating personal tab
You can edit any tab online and save it as your Personal.

You can edit, replace or remove any tab part or add personal notes – all changes will be seen only by you.

Personal tabs can be accessed anytime from any device, even offline.
Learn more »
comments
print report bad tab
1 comment total.
0 reply
stormshadegfx 10 Sep 16, 2017 02:34 PM

It's a dope tab of a beautiful song.

guest
You may want to rate the tab now too:
select rating
Wanna post a correction for this tab? Suggest correction