Oops, an error
Loading. Please wait.

Rejoice tab

version 1
version 1

Whole song

Video

  • A lesson on her live acoustic performances of the song.
17,785 views 114 this week
2 commentsread comments
1 2 3 4 5
x 8
add to favorites
×
Save as Personal and add changes to this tab that will be seen only by you. Learn more ›
×
You can save this tab as Personal to edit and correct it or add notes. All changes will be seen only by you. Learn more »
launch autoscroll
font size
0
reset
how to read this tab
guitar tuner
edit
Autoscroll
slow
fast
+/-
esc
set tempo
stop
-------------------------------------------------------------------------------
                             REJOICE - Julien Baker
-------------------------------------------------------------------------------

Tabbed by: Ben

Tuning: Drop Db


[Intro/Verse]

     Gb      Db     
eb|--0-------0----------------------------------------------------------------|
Bb|--8-------3----------------------------------------------------------------|
Gb|--0-------0----------------------------------------------------------------|
Db|--9-------4----------------------------------------------------------------|
Ab|--10------5----------------------------------------------------------------|
Db|--10------5----------------------------------------------------------------|


[Chorus 1]

     Ebmin    Db      Gb        B
eb|---------------------------------------------------------------------------|
Bb|---------------------------------------------------------------------------|
Gb|---------------------------------------------------------------------------|
Db|------5p4------4/5------5---------5p0--------------------------------------|
Ab|----2--------5--------0---0h3--3-------------------------------------------|
Db|--2--------0--------5------------------------------------------------------|


[Chorus 2]

      Ebmin   Db      Gb      B
eb|---------------------------------------------------------------------------|
Bb|---------------------------------------------------------------------------|
Gb|---------------------------------------------------------------------------|
Db|--5-5-5p4--4-4-4h5--5-5-5----5-5-5p0---------------------------------------|
Ab|--2-2-2----5-5-5----0-0-0h3--3-3-3-----------------------------------------|
Db|--2-2-2----0-0-0----5-5-5--------------------------------------------------|


(Hammer/pull or slide according to your preference - the key is that each chord leads into the next).

************************************

| /   slide up
| \   slide down
| h   hammer-on
| p   pull-off

************************************

            
            
Suggest correction
Creating personal tab
Creating personal tab
You can edit any tab online and save it as your Personal.

You can edit, replace or remove any tab part or add personal notes – all changes will be seen only by you.

Personal tabs can be accessed anytime from any device, even offline.
Learn more »
comments
print report bad tab
2 comments total.
0 reply
dashguitar 52 Jan 28, 2016 10:07 AM

She actually plays it in Drop D
I am tabbing this from a coffee shop from memory so this could be off a bit.

The chords are M7:
(Intro and Verse)
e----
b--0-
g--0-
d--2-
a--3-
D--3-

e--------
b--5--7--
g--0--0-- I can't remember what chord the second one so try one of
d--7--9-- these and comment below.
a--8--10-
D--8--10-

She starts on the second chord and slides down the first one

(Chorus and Ending Build)
e----------------------------------
b----------------------------------
g----------------------------------
d------5-------4/5-----5-------5---
a----2---2---------------0-3-3---0- repeat this over and over. At some
D--2-------0-0-----5-5------------- points she strums these as chords

have fun with it!

+9 reply
dashguitar 52 Jan 28, 2016 04:31 PM

So the first correction I made was incorrect so this is the correct one. Shouldn't tab at a coffee shop with out a guitar!

(intro and Verse)
e---------
b--3--8---
g--0--0---
d--4--9---
a--5--10--
D--5--10--
G C

She starts on the C and then slides down the G until the chorus an build

(Chorus and Build)
e----------------------------------
b----------------------------------
g----------------------------------
d------5-------4/5-----5-------5---
a----2---2---------------0-3-3---0-
D--2-------0-0-----5-5-------------

Super easy song, but oh so powerful! Enjoy and Rejoice!

guest
You may want to rate the tab now too:
select rating
Wanna post a correction for this tab? Suggest correction