Oops, an error
Loading. Please wait.

Something tab

version 2
version 2

Whole song

25,306 views 399 this week
8 commentsread comments
1 2 3 4 5
x 35
add to favorites
×
Save as Personal and add changes to this tab that will be seen only by you. Learn more ›
×
You can save this tab as Personal to edit and correct it or add notes. All changes will be seen only by you. Learn more »
launch autoscroll
font size
0
reset
how to read this tab
guitar tuner
edit
Autoscroll
slow
fast
+/-
esc
set tempo
stop
Author
Difficulty
                                       SOMETHING by Julien Baker


Tabbed from the acoustic live version - https://www.youtube.com/watch?v=QLhLileFX9k


[Intro]
           
e|-------------------------------------7h9---7p0---|-------------------------------------7h9---7p0---|
B|-------9p0-----7---7p0-----7---7p0---------------|-------9p0-----7---7p0-----7---7p0---------------|
G|-----9-----9-----9-----9-----9-----9-----9-----9-|-----9-----9-----9-----9-----9-----9-----9-----9-|
D|-------------------------------------------------|-------------------------------------------------|
A|-------------0-----------------------------------|-------------0-----------------------------------|
E|-9-----------------------0-----------------------|-9-----------------------0-----------------------|


e|-------------------------------------7h9---7p0---|-------------------------------------------------|
B|-------9p0-----7---7p0-----7---7p0---------------|-------9p0-----7---7-----------------------------|
G|-----9-----9-----9-----9-----9-----9-----9-----9-|-----9-----9-----9-------9~----------------------|
D|-------------------------------------------------|-------------------------------------------------|
A|-------------0-----------------------------------|-------------0-----------------------------------|
E|-9-----------------------0-----------------------|-9-----------------------0~----------------------|
                                                                                         I know you're

[Verse]
             
e|-------------------------------------------------|-------------------------------------------------|
B|-------9-----------9-----------9-----------9-----|-------9-----------9-----------9-----------9-----|
G|-----9-----9-----9-----9-----9-----9-----9----9--|-----9-----9-----9-----9-----9-----9-----9----9--|
D|-------------------------------------------------|-------------------------------------------------|
A|-------------0-----------------------------------|-------------0-----------------------------------|
E|-9-----------------------0-----------0-----------|-9-----------------------0-----------0-----------|
  slee       -ping   by   now              I'm still up wal    -king        around      The walls of my
        
e|-------------------------------------------------|-------------------------------------------------|
B|-------9-----------9-----------9-----------9-----|-------9-----------9-----------9-----------9-----|
G|-----9-----9-----9-----9-----9-----9-----9----9--|-----9-----9-----9-----9-----9-----9-----9----9--|
D|-------------------------------------------------|-------------------------------------------------|
A|-------------0-----------------------------------|-------------0-----------------------------------|
E|-9-----------------------0-----------0-----------|-9-----------------------0-----------0-----------|
  skull       bends       backwards     And in like a labyrinth                               And  I 
        
e|-------------------------------------------------|-------------------------------------------------|
B|-------9-----------9-----------9-----------9-----|-------9-----------9-----------9-----------9-----|
G|-----9-----9-----9-----9-----9------9----9----9--|-----9-----9-----9-----9-----9-----9-----9----9--|
D|-------------------------------------------------|-------------------------------------------------|
A|-------------0-----------------------------------|-------------0-----------------------------------|
E|-9-----------------------0-----------0-----------|-9-----------------------0-----------0-----------|
  knew I was   wasting my time                Keep myself       awake  at   night          'Cause when-
      
e|-------------------------------------------------|-------------------------------------------------|
B|-------9-----------9-----------9-----------9-----|-------9-----------9-----------9-----------9-----|
G|-----9-----9-----9-----9-----9-----9-----9-------|-------------------------------------------------|
D|-------------------------------------------------|-------------------------------------------------|
A|-------------0-----------------------------------|-------------0-----------------------------------|
E|-9-----------------------0-----------0-----------|-9-----------------------0-----------------------|
   ever   I   close my    eyes      I'm chasing your tail         lights


[Bridge]
             
e|-------------------------------------------------|-------------------------------------------------|
B|-------9-------9-------9-------9-------9---------|-------9-------9-------9-------9--------9--------|
G|-----------9-------9---------------9-------9-----|-----------9-------9---------------9--------9----|
D|-----7---7-------7---7-------7---7-------7---7---|-----7---7-------7---7-------7---7--------7---7--|
A|-0-----------0-----------0-----------0-----------|-9-----------9-----------9------------9----------|
E|-------------------------------------------------|-------------------------------------------------|
  In the                                            dark
        
e|-------------------------------------------------|-------------------------------------------------|
B|-------9-------9-------9-------9-------9---------|-------9-------9-------9-------9--------9--------|
G|-----------9-------9---------------9-------9-----|-----------9-------9---------------9--------9----|
D|-----7---7-------7---7-------7---7-------7---7---|-----7---7-------7---7-------7---7--------7---7--|
A|-0-----------0-----------0-----------0-----------|-9-----------9-----------9------------9----------|
E|-------------------------------------------------|-------------------------------------------------|
  In the                                            dark

e|-------------------------------------------------|-------------------------------------------------|
B|-------9-------9-------9-------9-------9---------|-------9-------9-------9-------9--------9--------|
G|-----------9-------9---------------9-------9-----|-----------9-------9---------------9--------9----|
D|-----7---7-------7---7-------7---7-------7---7---|-----7---7-------7---7-------7---7--------7---7--|
A|-0-----------0-----------0-----------0-----------|-9-----------9-----------9------------9----------|
E|-------------------------------------------------|-------------------------------------------------|
  In the                                            dark                                      Ooooh~  


[Bridge Pt.2]
             
e|-------------------------------------------------|-------------------------------------------------|
B|-------9-------9-------9-------9-------9---------|-------9-------9-------9-------9-------9---------|
G|-----------9-------9---------------9-------9-----|-----------9-------9---------------9-------9-----|
D|-------------------------------------------------|-------------------------------------------------|
A|-------------------------------------------------|-------------------------------------------------|
E|-0---0---0---0---0---0---0---0---0---0---0---0---|-0---0---0---0---0---0---0---0---0---0---0---0---|
                                                                                         I know you

[Verse]
             
e|-------------------------------------------------|-------------------------------------------------|
B|-------------------------------------------------|-------9-----------9-----------------------------|
G|-------------------------------------------------|-----9-----9-----9-----9-------------------------|
D|-------------------------------------------------|-------------------------------------------------|
A|-------------0-----------------------------------|-------------0-----------------------------------|
E|-9-----------------------0-----------------------|-9-----------------------0-----------------------|
  left        hours       ago          I still haven't moved    yet                    I knew you were
         
e|-------------------------------------------------|-------------------------------------------------|
B|-------------------9-----------9-----------9-----|-------9-----------9-----------9-----------9-----|
G|-----------------9-----9-----9-----9-----9----9--|-----9-----9-----9-----9-----9-----9-------------|
D|-------------------------------------------------|-------------------------------------------------|
A|-------------0-----------------------------------|-------------0-----------------------------------|
E|-9-----------------------0-----------0-----------|-9-----------------------0-----------0-----------|
  gone        months  ago             I can't think of  any-    one  else             I should've said 


[Chorus]
             
e|-------------------------------------------------|-------------------------------------------------|
B|-------9-----------9-----------9-----------9-----|-------9-----------9-----------9-----------9-----|
G|-----9-----9-----9-----9-----9-----9-----9----9--|-----9-----9-----9-----9-----9-----9-----9----9--|
D|-------------------------------------------------|-------------------------------------------------|
A|-------------0-----------------------------------|-------------0-----------------------------------|
E|-9-----------------------0-----------0-----------|-9-----------------------0-----------0-----------|
  something,  something,   something  I couldn't find something         to say     So I just said 
          
e|-------------------------------------------------|-------------------------------------------------|
B|-------9-----------9-----------9-----------9-----|-------9-----------9-----------9-----------9-----|
G|-----9-----9-----9-----9-----9-----9-----9----9--|-----9-----9-----9-----9-----9-----9-----9----9--|
D|-------------------------------------------------|-------------------------------------------------|
A|-------------0-----------------------------------|-------------0-----------------------------------|
E|-9-----------------------0-----------0-----------|-9-----------------------0-----------0-----------|
 nothing,    nothing,   nothing             Sat and watched you drive away              I just let the


[Verse]
             
e|-------------------------------------------------|-------------------------------------------------|
B|-------9-----------9-----------9-----------9-----|-------9-----------9-----------9-----------9-----|
G|-----9-----9-----9-----9-----9-----9-----9----9--|-----9-----9-----9-----9-----9-----9-----9----9--|
D|-------------------------------------------------|-------------------------------------------------|
A|-------------0-----------------------------------|-------------0-----------------------------------|
E|-9-----------------------0-----------0-----------|-9-----------------------0-----------0-----------|
 parking lot   swallow     me up        Choking your tires and kicking up dust            Asking aloud
       
e|-------------------------------------------------|-------------------------------------------------|
B|-------9-----------9-----------9-----------9-----|-------9-----------9-----------9-----------9-----|
G|-----9-----9-----9-----9-----9-----9-----9----9--|-----9-----9-----9-----9-----9-----9-----9----9--|
D|-------------------------------------------------|-------------------------------------------------|
A|-------------0-----------------------------------|-------------0-----------------------------------|
E|-9-----------------------0-----------0-----------|-9-----------------------0-----------0-----------|
  why you leavin   again?              But the pavement won't answer me              I just let your
           
e|-------------------------------------------------|-------------------------------------------------|
B|-------9-----------9-----------9-----------9-----|-------9-----------9-----------9-----------9-----|
G|-----9-----9-----9-----9-----9-----9-----9----9--|-----9-----9-----9-----9-----9-----9-----9----9--|
D|-------------------------------------------------|-------------------------------------------------|
A|-------------0-----------------------------------|-------------0-----------------------------------|
E|-9-----------------------0-----------0-----------|-9-----------------------0-----------0-----------|
 silence      swallow me up          The ring in my ears     tastes    like  blood       Asking aloud

e|-------------------------------------------------|-------------------------------------------------|
B|-------9-----------9-----------9-----------9-----|-------9-----------9-----------9-----------9-----|
G|-----9-----9-----9-----9-----9-----9-----9----9--|-----9-----9-----9-----9-----9-----9-----9----9--|
D|-------------------------------------------------|-------------------------------------------------|
A|-------------0-----------------------------------|-------------0-----------------------------------|
E|-9-----------------------0-----------0-----------|-9-----------------------0-----------0-----------|
 Why you leavin       again?           I know you won't answer me                      I know I meant


[Chorus]
             
e|-------------------------------------------------|-------------------------------------------------|
B|-------9-----------9-----------9-----------9-----|-------9-----------9-----------9-----------9-----|
G|-----9-----9-----9-----9-----9-----9-----9----9--|-----9-----9-----9-----9-----9-----9-----9----9--|
D|-------------------------------------------------|-------------------------------------------------|
A|-------------0-----------------------------------|-------------0-----------------------------------|
E|-9-----------------------0-----------0-----------|-9-----------------------0-----------0-----------|
  nothing,   nothing to you        I thought I meant something, something, something  But I just said
  
e|-------------------------------------------------|-------------------------------------------------|
B|-------9-----------9-----------9-----------9-----|-------9-----------9-----------9-----------9-----|
G|-----9-----9-----9-----9-----9-----9-----9----9--|-----9-----9-----9-----9-----9-----9-----9----9--|
D|-------------------------------------------------|-------------------------------------------------|
A|-------------0-----------------------------------|-------------0-----------------------------------|
E|-9-----------------------0-----------0-----------|-9-----------------------0-----------0-----------|
 nothing, said nothing, said nothing         Sat and watched you drive away           I should've said

e|-------------------------------------------------|-------------------------------------------------|
B|-------9-----------9-----------9-----------9-----|-------9-----------9-----------9-----------9-----|
G|-----9-----9-----9-----9-----9-----9-----9----9--|-----9-----9-----9-----9-----9-----9-----9----9--|
D|-------------------------------------------------|-------------------------------------------------|
A|-------------0-----------------------------------|-------------0-----------------------------------|
E|-9-----------------------0-----------0-----------|-9-----------------------0-----------0-----------|
  something, something, something,   I couldnt find something     to say               So I just said 

e|-------------------------------------------------|-------------------------------------------------|
B|-------9-----------9-----------9-----------9-----|-------9-----------9-----------9-----------9-----|
G|-----9-----9-----9-----9-----9-----9-----9----9--|-----9-----9-----9-----9-----9-----9-----9----9--|
D|-------------------------------------------------|-------------------------------------------------|
A|-------------0-----------------------------------|-------------0-----------------------------------|
E|-9-----------------------0-----------0-----------|-9-----------------------0-----------0-----------|
  nothing, said nothing, said nothing   I can't think of anyone, anyone else          I can't think of

e|-------------------------------------------------|-------------------------------------------------|
B|-------9-----------9-----------9-----------9-----|-------9-----------9-----------9-----------9-----|
G|-----9-----9-----9-----9-----9-----9-----9----9--|-----9-----9-----9-----9-----9-----9-----9----9--|
D|-------------------------------------------------|-------------------------------------------------|
A|-------------0-----------------------------------|-------------0-----------------------------------|
E|-9-----------------------0-----------0-----------|-9-----------------------0-----------0-----------|
  anyone,   anyone else            I can't think of anyone,     anyone     else       I can't think of
    
e|-------------------------------------------------|-------------------------------------------------|
B|-------9-----------9-----------9-----------------|-------------------------------------------------|
G|-----9-----9-----9-----9-----9-----9-------------|-------------------------------------------------|
D|-------------------------------------------------|-------------------------------------------------|
A|-------------0-----------------------------------|------------0------------------------------------|
E|-9-----------------------0-----------0-----------|-9-----------------------------------------------|
  anyone,    anyone      else      I won't think of anyone     else


*****************************

     p = pull off
     h = hammer on

*****************************

            
            
Suggest correction
Creating personal tab
Creating personal tab
You can edit any tab online and save it as your Personal.

You can edit, replace or remove any tab part or add personal notes – all changes will be seen only by you.

Personal tabs can be accessed anytime from any device, even offline.
Learn more »
comments
print report bad tab
8 comments total. Showing first comments.
+2 reply
Smokeybar 10 Mar 22, 2016 09:59 AM

Fantastic tab! I've been looking for this everywhere, thanks.

+3 reply
kelevhead 10 May 18, 2016 04:38 PM

Extremely accurate, thank you!

0 reply
kelevhead 10 May 20, 2016 01:56 PM

Just something I noticed about verse 2. I feel like it should be this (going by the provided video):

e|-------------------------------------------------|-------------------------------------------------|
B|-------------------------------------------------|-------9-----------9-----------------------------|
G|-------------------------------------------------|-----9-----9-----9-----9-------------------------|
D|-------------------------------------------------|-------------------------------------------------|
A|-0-----------9-----------------------------------|-0-----------9-----------------------------------|
E|-------------------------0-----------------------|-------------------------0-----------------------|
left hours ago I still haven't moved yet I knew you were

e|-------------------------------------------------|-------------------------------------------------|
B|-------------------9-----------9-----------9-----|-------9-----------9-----------9-----------9-----|
G|-----------------9-----9-----9-----9-----9----9--|-----9-----9-----9-----9-----9-----9-------------|
D|-------------------------------------------------|-------------------------------------------------|
A|-0-----------9-----------------------------------|-0-----------9-----------------------------------|
E|-------------------------0-----------0-----------|-------------------------0-----------0-----------|
gone months ago I can't think of any- one else I should've said

That being said, I have little experience with playing/tabbing by ear, so someone should probably double check.

guest
You may want to rate the tab now too:
select rating
Wanna post a correction for this tab? Suggest correction