Oops, an error
Loading. Please wait.
We have Chord Pro version of Vessels.
It's the closest thing you can get to the original song and it has interactive parts. Check out the tab »
×
3,367 views 75 this week
1 commentread comment
1 2 3 4 5
x 7
add to favorites
×
Save as Personal and add changes to this tab that will be seen only by you. Learn more ›
×
You can save this tab as Personal to edit and correct it or add notes. All changes will be seen only by you. Learn more »
launch autoscroll
font size
0
reset
how to read this tab
guitar tuner
edit
Autoscroll
slow
fast
+/-
esc
set tempo
stop
Tuning: Drop C# - C# G# C# F# A# D#

Based off the way she played it live on The Unlocked Sessions https://www.youtube.com/watch?v=hHkQ20iqNRU

This is pretty much the whole song. She just repeats a few parts and changes the picking of some of the notes
around sometimes.


[Intro/Verse]

D#|------------------------10-------------------------------5-----------------|
A#|--3----7----10----12---------12------------------------------5/7----3\2----|
F#|-----------------------------------7----11----6----4-----------------------|
C#|---------------------------------------------------------------------------|
G#|--2----5----9-----10-------------------------------------------------------|
C#|-----------------------------------9----12----7----5-----------------------|


[Chorus/Outro]

D#|------------------------------------------------------------------------------------------------|
A#|-----------------------------------------------------------------------------------10—----------|
F#|--4-------4-------4------4-------4-------4-------6-------6-------7--------7---------------7-----|
C#|------0-------0------0-------0-------0-------0-------0-------0-------0---------0-------0-----0--|
G#|------------------------------------------------------------------------------------------------|
C#|--5-------5-------5------5-------5-------5-------7-------7-------9--------9--------9------9-----|

D#|-----------------------------------------------------------------------------|
A#|--------------10----------------------10-----------------------—-------------|
F#|--7-----7-----------7-----7-----7------------7-----7-----7-----9------9------|
C#|-----0-----0-----0-----0-----0-----0-----0------0-----0-----0------0------0--|
G#|-----------------------------------------------------------------------------|
C#|--9-----9-----9-----9-----9-----9------9-----9-----9-----9-----11-----11-----|

D#|------------------------------------------------------------------5-------------|
A#|--------------------------------------------------------------------------------|
F#|--11------11------11------11------11------6-----6-----4-----4-----------4-------|
C#|------0-------0-------0-------0-------0------0-----0-----0-----0-----0------0---|
G#|--------------------------------------------------------------------------------|
C#|--12------12------12------12------12------7-----7-----5-----5-----5-----5-------|

D#|-----------------------------------------------------|
A#|--------------------------------------10-------------|
F#|--4-----4-----6-----6-----7-----7------------7-------|
C#|-----0-----0-----0-----0-----0-----0-----0-------0---|
G#|-----------------------------------------------------|
C#|--5-----5-----7-----7-----9-----9-----9------9-------|

D#|--------------------------------------------------------------------------------|
A#|---------------10-----------------------10-----------------------—--------------|
F#|---7-----7------------7-----7-----7-------------7-----7-----7-----9------9------|
C#|------0-----0------0-----0-----0-----0------0------0-----0-----0------0------0--|
G#|--------------------------------------------------------------------------------|
C#|---9-----9-----9------9-----9-----9------9------9-----9-----9-----11-----11-----|

D#|---------------------------------------------------------------------------|
A#|-------------------15------------------------------------------------------|
F#|---11------11--------------11------11------11-----6-----6------4-----2/3---|
C#|--------0-------0------0-------0-------0-------0-----0-----0---------------|
G#|---------------------------------------------------------------------------|
C#|---12------12------12------12------12------12-----7-----7------5-----4-5---|



************************************

| /  Slide up
| \  Slide down

************************************
Suggest correction
Creating personal tab
Creating personal tab
You can edit any tab online and save it as your Personal.

You can edit, replace or remove any tab part or add personal notes – all changes will be seen only by you.

Personal tabs can be accessed anytime from any device, even offline.
Learn more »
comments
print report bad tab
1 comment total.
0 reply
copperwreck 1,212 Sep 20, 2016 02:31 PM

Sounds right, but the original can be played in standard tuning I think.

guest
You may want to rate the tab now too:
select rating
Wanna post a correction for this tab? Suggest correction