Oops, an error
Loading. Please wait.

Enero Y Abril Bass

27 views 1 this week
no commentswrite comment
1 2 3 4 5
3 more votes to show rating
add to favorites
launch autoscroll
font size
0
reset
guitar tuner
×
Best way to learn
"Enero Y Abril"
Autoscroll
slow
fast
+/-
esc
set tempo
stop
A.S.M.L.

AFINADO EN LA A SI SE TOCA

G---------------------------------------------
D--------4-4-4-4-4----------------------------
A------6-----------6--------------------------
E--4-4----------------------------------------

G---------------------------------------------
D--------4-4-4-4-4----------------------------
A------6-----------6-6------------------------
E--4-4----------------------------------------


G----------------------4-4--------------------
D------------4-4--6-6-------------------------
A---4-4--7-7----------------------------------
E---------------------------------------------

CORO

SI SOLO QUISIERAS BIEN PODRIA HACERTE FELIZ...


G---------------------------------------------
D---------------------------------------------
A-------------6-------------------------------
E--6---4---2----------------------------------

Y ASI SE LO LLEVA TODA LA CANCION
PERO CAMBIA EN UN CORO MAS O MENOS EN EL MINUTO 
2:25 DE LA CANSION


G---------------------------------------------
D---------------------------------------------
A------3--4--6----------------------------------
E--6----------------------------------------
Suggest correction
Give kudos to tab author, rate the tab!
1 2 3 4 5
comments
print report bad tab
guest
You may want to rate the tab now too:
select rating
Wanna post a correction for this tab? Suggest correction