Oops, an error
Loading. Please wait.

La Jaula De Oro Bass Tab

95 views 3 this week
no commentswrite comment
1 2 3 4 5
3 more votes to show rating
add to favorites
launch autoscroll
font size
0
reset
guitar tuner
Autoscroll
slow
fast
+/-
esc
set tempo
stop
Help us to improve Ultimate-Guitar.com Take our survey!
×
En los primeros versos no hace nada el bajo
es un sampleo, el bajo entra un poco antes 
del coro

..........
 y no pueeeeeeeeedo regresar...   
G-----------------------------------------|
D-----------------------------------------|
A--------------------------3-3-3-3-3-3-3-3|
E-----------------------------------------|

  de q me sirve el dinero
G----------------------------------|
D----------------------------------|
A-3-3-3-3-3-3-3-3-3-3--------------|
E---------------------1-1-1-1------|
 
 si estoy como prisionero 
G----------------------------------|
D----------------------------------|
A----------------------------------|
E-1-1-1-1-1-1-1-1-1-1-1-1----------|

 dentro de esta gran nación
G----------------------------------|
D----------------------------------|
A------------------------3-3-3-3---|
E--1-1-1-3-3-3-3-3-3-3-3-----------|


 cuando me acuerdo hasta lloro 
G----------------------------------|
D----------------------------------|
A-3-3-3-3-3-3-3-3-3-3-3-3----------|
E-------------------------3-3-3-3--|

 q aunque la jaula sea de oro 
G----------------------------------|
D----------------------------------|
A----------------------------------|
E-3-3-3-3-3-3-3-3-3-3-3-3-3-3-3----|

 no deja de ser prisión
G----------------------------------|
D----------------------------------|
A----------------------------------|
E-3-3-3-3-3-3-3-3-3-3-3------------|

            (solo de acordeón)
G-------------------------------------------|
D-----2-5-------------------2-5-------------|
A--3-------3-----2-5-----3------3----2-5----|
E-------------3------3-------------3-----3--|

G-------------------------------------------|
D-----2-5-------------------2-5-------------|
A--3-------3-----2-5-----3------3----2-5----|
E-------------3------3-------------3-----3--|


mis hijos no hablan conmigo
otro idioma han aprendido 

 y olvidado el español
G----------------------------------|
D----------------------------------|
A----------------------------------|
E--------------------3-------------|


 piensan como americanos
G--------2-------------------------|
D-0----3---0-----------------------|
A----------------------------------|
E----------------------------------|
 
 niegan q son mexicanos
G----------------------------------|
D-------0--3-----------------------|
A-1---1----------------------------|
E----------------------------------|
                   
 aunque tengan mi color
G----------------------------------|
D----------------------------------|
A-------------------3------3-------|
E------------------------3---------|

 de mi trabajo a mi casa
G----------------------------------|
D-----2--5-------------------------|
A-3---------3----------------------|
E----------------------------------|
      
 yo no se lo q me pasa
G----------------------------------|
D----------------------------------|
A-3-2-1-0--------------------------|
E----------------------------------|
                     
 q aunque soy hombre de hogar
G----------------------------------|
D----------------------------------|
A----------------------------2-5---|
E---------------------3----3-------|
      
 casi no salgo a la calle
G----------------------------------|
D-------------------------3-5------|
A----------0-3-------3--3----------|
E--3--1--1-------------------------|
                      
 pues tengo miedo q me hallen 
G----------------------------------|
D----------------------------------|
A--------------------------2-5-----|
E------------------------3---------|
                  
 y me puedan deportar
G----------------------------------|
D----------------------------------|
A---------2-------3----------------|
E----3--5--------------------------|

  de q me sirve el dinero
G----------------------------------|
D----------------------------------|
A-3-3-3-3-3-3-3-3-3-3--------------|
E---------------------1-1-1-1------|
 
 si estoy como prisionero 
G----------------------------------|
D----------------------------------|
A----------------------------------|
E-1-1-1-1-1-1-1-1-1-1-1-1----------|
        
 dentro de esta gran nación
G----------------------------------|
D----------------------------------|
A------------------------3-3-3-3---|
E--1-1-1-3-3-3-3-3-3-3-3-----------|

                          
 cuando me acuerdo hasta lloro 
G----------------------------------|
D----------------------------------|
A-3-3-3-3-3-3-3-3-3-3-3-3----------|
E-------------------------3-3-3-3--|

 q aunque la jaula sea de oro 
G----------------------------------|
D----------------------------------|
A----------------------------------|
E-3-3-3-3-3-3-3-3-3-3-3-3-3-3-3----|
                    
 no deja de ser prisión
G----------------------------------|
D----------------------------------|
A----------------------3-3-3-3-3---|
E-3-3-3-3-3-3-3-3-3-3-3------------|

  de q me sirve el dinero
G----------------------------------|
D----------------------------------|
A-3-3-3-3-3-3-3-3-3-3--------------|
E---------------------1-1-1-1------|
 
 si estoy como prisionero 
G----------------------------------|
D----------------------------------|
A----------------------------------|
E-1-1-1-1-1-1-1-1-1-1-1-1----------|
        
 dentro de esta gran nación
G----------------------------------|
D----------------------------------|
A------------------------3-3-3-3---|
E--1-1-1-3-3-3-3-3-3-3-3-----------|

                         
 cuando me acuerdo hasta lloro 
G----------------------------------|
D----------------------------------|
A-3-3-3-3-3-3-3-3-3-3-3-3----------|
E-------------------------3-3-3-3--|

 q aunque la jaula sea de oro 
G----------------------------------|
D----------------------------------|
A----------------------------------|
E-3-3-3-3-3-3-3-3-3-3-3-3-3-3-3----|
                    
 no deja de ser prisión
G----------------------------------|
D----------------------------------|
A---------------------3-3-3-3-3-3--|
E-3-3-3-3-3-3-3-3-3-3--------------|


 de q me sirve el dineeeeeeee
G-------------------------------------------|
D-----2-5-------------------2-5-------------|
A--3-------3-----2-5-----3------3----2-5----|
E-------------3------3-------------3-----3--|

 eeerooooooooooooooooooooooo
G-------------------------------------------|
D-----2-5-------------------2-5-------------|
A--3-------3-----2-5-----3------3----2-5----|
E-------------3------3-------------3-----3--|

 de q me sirve eeeeeeeehhh
G-------------------------------------------|
D-----2-5-------------------2-5-------------|
A--3-------3-----2-5-----3------3----2-5----|
E-------------3------3-------------3-----3--|

 eeeeeeeeeeeeehhhhhhhhhhh
G-------------------------------------------|
D-----2-5-------------------2-5-------------|
A--3-------3-----2-5-----3------3----2-5----|
E-------------3------3-------------3-----3--|

 eeeeeeeeeeeeehhhhhhhhhhh
G-------------------------------------------|
D-----2-5-------------------2-5-------------|
A--3-------3-----2-5-----3------3----2-5----|
E-------------3------3-------------3-----3--|

 eeeeeeeeeeeeehhhhhhhhhhh
G-------------------------------------------|
D-----2-5-------------------2-5-------------|
A--3-------3-----2-5-----3------3----2-5----|
E-------------3------3-------------3-----3--|
 
eeeeeeeeeeeeehhhhhhhhhhh
G-------------------------------------------|
D-----2-5-------------------2-5-------------|
A--3-------3-----2-5-----3------3----2-5----|
E-------------3------3-------------3-----3--|

pueden hacer algunas variaciones, oigan la rola

y ya saben si tienen dudas, comentarios, anecdotas,
chistes o lo q sea a mi mail jcd_007@
visiten 

si van a usar esta tab para algun lugar avisenme
no sean mala onda y si buscan un 
guitarrista ando en busca de banda =)
Suggest correction
Give kudos to tab author, rate the tab!
1 2 3 4 5
comments
print report bad tab
guest
You may want to rate the tab now too:
select rating
Wanna post a correction for this tab? Suggest correction