Oops, an error
Loading. Please wait.

Sin Documentos Tab

122 views 1 this week
no commentswrite comment
1 2 3 4 5
3 more votes to show rating
add to favorites
launch autoscroll
font size
0
reset
how to read this tab
guitar tuner
×
Best way to learn
"Sin Documentos"
Autoscroll
slow
fast
+/-
esc
set tempo
stop
Hola chavos, me da gusto colaborar por primera vez con 
esta es mi transcripción de la figura que hace el acordeón en esta
cancion, y como se habran dado cuenta es la misma que el solo de
guitarra, ahi les va.


E |-10-10-10-10-11-|-10--6----6--10----10-10-10-10-11-|
B |----------------|-------8--------------------------|
G |----------------|----------------------------------|
D |----------------|----------------------------------|
A |----------------|----------------------------------|
E |----------------|----------------------------------|

|-10------------10------10-10-11-|-13-11--11-11-10--10-10-8--8---------|
|-----10-7--10-------------------|------------------------------11--10-|
|--------------------------------|-------------------------------------|
|--------------------------------|-------------------------------------|
|--------------------------------|-------------------------------------|
|--------------------------------|-------------------------------------|

|------------|---------|
|----8-------|---------|
|------11----|---------|
|------------|---------|
|------------|---------|
|------------|---------|

En el solo es la misma figura, solo que es una octava menos.
Osea que en lugar del traste 10 de la primera cuerda, se empieza
tocar en el traste 7 de la tercera cuerda y se hace la misma
figuira como dije hace ratos.
hace ratos.
Suggest correction
Give kudos to tab author, rate the tab!
1 2 3 4 5
comments
print report bad tab
guest
You may want to rate the tab now too:
select rating
Wanna post a correction for this tab? Suggest correction