Oops, an error
Loading. Please wait.

Voluntad Tab

14 views 1 this week
no commentswrite comment
1 2 3 4 5
3 more votes to show rating
add to favorites
launch autoscroll
font size
0
reset
how to read this tab
guitar tuner
×
Best way to learn
"Voluntad"
Autoscroll
slow
fast
+/-
esc
set tempo
stop
**********************************************

       ESTA ES LA BUENA Y YA CORRIGIDA

**********************************************

(esto es para que en un grupo lo haga 
el guitarrista lider)

e---------------------------------------------
B---------------------------------------------
G---------------------------------------------
D---------------------------------------------
A--5--5-7--5-7-8-7--------8-8-8-7-5-----------
E------------------3-3h5-5--------------------


e---------------------------------------------
B---------------------------------------------
G---------------------------------------------
D---------------------------------------------
A--5--5-7--5-7-8-7--------8-8-8-7-5-----------
E------------------3-3h5-5--------------------

(esto va entre la cancion)

nunca en toda mi vida he...

e---------------------------------------------
B---------------------------------------------
G-7h8-7--9-7-10-------------------------------
D------10-------------------------------------
A---------------------------------------------
E---------------------------------------------

si he de llamar voluntad

e----------12---------------------------------
B--------10-----------------------------------
G------10-------------------------------------
D----12---------------------------------------
A--10-----------------------------------------
E---------------------------------------------

si te veo pasar

e--12-----------------------------------------
B----10---------------------------------------
G------10-------------------------------------
D--------12-----------------------------------
A---------------------------------------------
E---------------------------------------------

e---------------------------------------------
B---------------------------------------------
G-----------7-x-9-x-x-------------------------
D--7-x-10-xx----------------------------------
A---------------------------------------------
E---------------------------------------------


e---------------------------------------------
B---------------------------------------------
G-----------7-x-9-x-x-------------------------
D--7-x-10-xx----------------------------------
A---------------------------5-----------------
E---------------------------------------------


(alli se usa un poco el vibrato)

quiero hacer esto o aquello contarte mi ansiedad

e-----12--------------------------------------
B--------10-----------------------------------
G---9-----------------------------------------
D-12------------------------------------------
A---------------------------------------------
E---------------------------------------------


e---------------------------------------------
B---------------------------------------------
G-----------7-x-9-x-x-------------------------
D--7-x-10-xx----------------------------------
A---------------------------------------------
E---------------------------------------------


e---------------------------------------------
B---------------------------------------------
G-----------7-x-9-x-x-------------------------
D--7-x-10-xx----------------------------------
A---------------------------5-----------------
E---------------------------------------------

(notas en el coro)

E F# A C


e---------------------------------------------
B---------------------------------------------
G---------------------------------------------
D---------------------------------------------
A--5--5-7--5-7-8-7--------8-8-8-7-5-----------
E------------------3-3h5-5--------------------


me olvido...


que bien me haria despertar...
e--12-----------------------------------------
B----10---------------------------------------
G------10-------------------------------------
D--------12-----------------------------------
A---------------------------------------------
E---------------------------------------------


e---------------------------------------------
B---------------------------------------------
G-----------7-x-9-x-x-------------------------
D--7-x-10-xx----------------------------------
A---------------------------------------------
E---------------------------------------------


e---------------------------------------------
B---------------------------------------------
G-----------7-x-9-x-x-------------------------
D--7-x-10-xx----------------------------------
A---------------------------5-----------------
E---------------------------------------------

luego va el coro y se repite algunas partes
de esta tablatura
Suggest correction
Give kudos to tab author, rate the tab!
1 2 3 4 5
comments
print report bad tab
guest
You may want to rate the tab now too:
select rating
Wanna post a correction for this tab? Suggest correction