Oops, an error
Loading. Please wait.

I Never Got To Tell You What I Wanted To tab

version 1
version 1

Whole song

1,703 views 1 this week
1 commentread comment
1 2 3 4 5
2 more votes to show rating
add to favorites
×
Save as Personal and add changes to this tab that will be seen only by you. Learn more ›
×
You can save this tab as Personal to edit and correct it or add notes. All changes will be seen only by you. Learn more »
launch autoscroll
font size
0
reset
how to read this tab
guitar tuner
edit
Autoscroll
slow
fast
+/-
esc
set tempo
stop
Author
Difficulty

Intro: Clean

Part 1
e|------------------------------------------------------------------|
B|------------------------------------------------------------------|
G|------------------------------------------------------------------|
D|-12-12-12-12-12-12-12-12-11-11-11-11-11-11-11-11------------------|
A|------------------------------------------------------------------|
E|------------------------------------------------------------------|

e|------------------------------------------------------------------|
B|------------------------------------------------------------------|
G|------------------------------------------------------------------|
D|-9-9-9-9-9-9-9-9-9-9-9-9-9-9-9-9-11--repeat from start------------|
A|------------------------------------------------------------------|
E|------------------------------------------------------------------|

Part 2 of Intro
e|------------------------------------------------------------------|
B|------------------------------------------------------------------|
G|------------------------------------------------------------------|
D|-14-14-14/19-19-19-19-14-14-14/19-19-19-19/9-9-9-9-9--------------|
A|------------------------------------------------------------------|
E|------------------------------------------------------------------|

e|------------------------------------------------------------------|
B|------------------------------------------------------------------|
G|------------------------------------------------------------------|
D|-12-11-9-9-9-9----repeat from start of part 2---------------------|
A|------------------------------------------------------------------|
E|------------------------------------------------------------------|

Verse 1:
Verse 1 is the just the intro (parts 1 and 2) twice

Chorus: Distortion  *10's and 12's not 1's and 2's
e|--------------------------------------------------------------|
B|--------------------------------------------------------------|
G|--------------------------------------------------------------|
D|-9--9--999---7--7--777---12--12--121212---12--12--121212------|
A|-9--9--999---7--7--777---12--12--121212---12--12--121212------|
E|-7--7--777---5--5--555---10--10--101010---10--10--101010------|

             repeat the above riff 4 times and on the 4th time only hit the
             12 
             12   chord once and let it ring
             10

Verse 2:

Play both parts of the intro just once

Chorus 2:
Same as the first chorus except instead of striking the last chord only
once and letting it ring, you strike in many times quickly on the 4th time

Bridge: Distortion (spitting on a gem...)

e|------------------------------------------------------------------|
B|------------------------------------------------------------------|
G|------------------------------------------------------------------|
D|-12121212141414149999---------repeat 3 times----------------------|
A|-12121212141414149999---------------------------------------------|
E|-10101010121212127777---------------------------------------------|

then...
    ("these things dont matter...")
e|------------------------------------------------------------------|
B|------------------------------------------------------------------|
G|------------------------------------------------------------------|
D|---99999999999999999----------------------------------------------|
A|---99999999999999999----------------------------------------------|
E|---77777777777777777----------------------------------------------|

then...

("oh! I never got to tell you...")
e|------------------------------------------------------------------|
B|------------------------------------------------------------------|
G|------------------------------------------------------------------|
D|-9--9--999---7--7--777--121212121212--repeat 6 times--------------|
A|-9--9--999---7--7--777--121212121212------------------------------|
E|-7--7--777---5--5--555--101010101010------------------------------|

then...
   ("sisters reach for your life")
e|------------------------------------------------------------------|
B|------------------------------------------------------------------|
G|------------------------------------------------------------------|
D|-7777779999991212121212------repeat 4 times-----------------------|
A|-7777779999991212121212-------------------------------------------|
E|-5555557777771010101010-------------------------------------------|

Outro: Clean 

Same as Intro (play once, do not repeat)



Okay...I think thats it. I'm pretty sure its correct, or at least accurate.
Im not sure bout some of the bridge but I think it works. I love Juliette &
The Licks and I enccourage everyone w/a guitar to try this song as it is an
awesome song. :D 
Suggest correction
Creating personal tab
Creating personal tab
You can edit any tab online and save it as your Personal.

You can edit, replace or remove any tab part or add personal notes – all changes will be seen only by you.

Personal tabs can be accessed anytime from any device, even offline.
Learn more »
Give kudos to tab author, rate the tab!
1 2 3 4 5
comments
print report bad tab
1 comment total.
0 reply
gary1991 80 Dec 06, 2009 12:54 AM

Your Right man this is an awesome song! Juliette and the licks Rock!
I think you missed a note, 9th on G, the second time you play part one of the intro. Not sure about bridge either, still, sounds pretty accurate.

G|------------------9------------------------------------
D|-12-12-12-12-12-12-12-11-11-11-11-11-11-11-11----------

guest
You may want to rate the tab now too:
select rating
Wanna post a correction for this tab? Suggest correction