Oops, an error
Loading. Please wait.

Candilejas Tab

267 views 3 this week
no commentswrite comment
1 2 3 4 5
2 more votes to show rating
add to favorites
launch autoscroll
font size
0
reset
how to read this tab
guitar tuner
×
Best way to learn
"Candilejas"
Autoscroll
slow
fast
+/-
esc
set tempo
stop
Ya esta terminada

"Yo siempre te voy a querer a pesar de todo
 antes no creia en el amor pero por ti crei
 como no enamorarme de tu sonrisa y mirada
 ...gracias por todo"


INTRO [G#, A#m, D#, G#, G#7]

  GUITARRA 1 [ARPEGEO]
    G#
E-|-4----6-----8-----6-----4--------------------------
B-|---4----4-----4-----4-----4---8--------------------
G-|----5----5-----------5-----5-----------------------
D-|---------------------------------------------------
A-|---------------------------------------------------
E-|-4----------4-----4-----4-----6--------------------
   A#m
E-|-6----8-----9-----8----6-----6---------------------
B-|--6-----6-----6-----6----6-----6--9----------------
G-|---6-----6-----------6-----6-----------------------
D-|---------------------------------------------------
A-|------8-----8-----8----8-----8----6----------------
E-|-6-------------------------------------------------
   D#
E-|------6------9----8----6---------------------------
B-|-8------8------8---6-----6---8-----9---9---9---9--E
G-|--8------8----------8-----8----8-----8---8---8--8-T
D-|---8----------------------------8-----6---6---6--6C
A-|-6----6-----------6----6-----6-----6---------------
E-|-------------6-------------------------------------

   GUITARRA 2 [REQUINTO]
   G#               A#m         D#              G#,G#7
E-|----------------|-----------|-----------------------
B-|----------------|-----------|-----------------------
G-|----------------|-----6-----|-----------------------
D-|----8-10-8------|---8---10-8|-------8-11-10-8-------
A-|-11--------11-10|-8---------|-11-10-----------10-11-
E-|----------------|-----------|---------------------;)


[La canción va arpegeada y puedes usar la parte del intro
 pero en algunas partes cambia de arpego pero bueno puedes
 tocar como quieras tocar el arpegeo]

G#                           A#m A#m7
Nadie te ha querido como que yo
D#              D#7           G# G#7
nadie te ha ofrecido tanto amor
G#                              A#m       D#
nadie te ha enseñado de la vida más...que yo
         A#m            D#              G#
nadie mi amor, busco tú amor con tanto amor

[A#m, D#]

G#                       A#m A#m7
Una tarde te acercaste a mi
D#        D#7          G# G#7
como primavera...mi jardin
G#                           A#m    D#
a luz del candileja yo me...enamo...re
       A#m           D#       G#
era tú amor tal como yo lo imagine

   [1:35]
E-|-9-7-9-7-10-9----------------------9----------------
B-|--------------9-10-12--12-10-12-10---12-------------
G-|----------------------------------------11-13-13s14-


[Cambio de tono]
 Midan bien los tiempos
[A, Bm, C#m, Bm]x2

     A            A7        Bm  Bm7
Cada vez que te miraba no podia ver
      E              E7          A      Bm...
en tu mirar que tanto amor iba a perder
  A             A7           Bm  Bm7
y hoy te vas de mi para olvidar
E                E7        A  Bm  C#m  Bm
 ¿qué será de ti y a donde irás?

A...A7...A...A7

E        E7
 Más que yo
         Bm7            E             A Bm  C#m Bm
nadie mi amor, busco tu amor con tanto amor

[Cambio de tono]
[A#, Cm, Dm7, Cm]

A#                        Cm  Cm7
 Y aunque se que nunca volveras
F                    A#
 yo te esperaré una eternidad

Arpegeado:

A#                                 Cm     Cm7
"y si alguna vez te acuerdas y quieres volver
          F           F7              A#
 aqui estaré, aqui mi amor, igual que ayer..."

,u_u

ACORDES  654321

Cm       335543
Cm7      335343
C#m      446654
Dm       557565
D#       668886
D#7      668686
E        779997
E7       779777
F        133211
F7       131211
G#       466544
G#7      464544
A        577655
A#m      688666
A#m7     686666
Bm       224432
Bm       224232
Suggest correction
Give kudos to tab author, rate the tab!
1 2 3 4 5
comments
print report bad tab
guest
You may want to rate the tab now too:
select rating
Wanna post a correction for this tab? Suggest correction