Oops, an error
Loading. Please wait.

La Cumparsita Tab

1,632 views 24 this week
no commentswrite comment
1 2 3 4 5
3 more votes to show rating
add to favorites
launch autoscroll
font size
0
reset
how to read this tab
guitar tuner
×
Best way to learn
"La Cumparsita"
Autoscroll
slow
fast
+/-
esc
set tempo
stop
 Intro: Am G  F  E


  Am  G  F  E                     Am
e|-5--3--1------------------------0--0------------------|
B|-5--3--1----3-0-----------------1----1----------------|
G|-5--4--2--1-----1---------------2------2--------------|
D|-7--5--3--2--------2-2-3-2-1-2--2--------2-2-3-2-1-2--|
A|-7--5--3--2---------------------0--0-0-0-0------------|
E|-5--3--1--0-0-0-0--0----------------------------------|

   E                      Am
e|------------------------0--0--------------------|
B|---3-0------------------1----1------------------|
G|-1-----1----------------2------2----------------|
D|-2-------2-2-3-2-1-2----2--------2--2-3-2-1-2---|
A|-2----------------------0--0-0-0-0--------------|
E|-0-0-0-0-0--------------------------------------|

   Dm                       Am
e|---1-5-4-5---4-5-4-5------5-5-4-5----4-5-4-5----|
B|---3-6-6-6---6-6-6-6------5-6-6-6----6-6-6-6----|
G|---2-7-7-7---7-7-7-7------5-7-7-7----7-7-7-7----|
D|-0----------------------------------------------|
A|------------------------------------------------|
E|------------------------------------------------|


e|-7-8-10--*12----------------|
B|----------------------------|
G|-7-9-10---------------------|
D|---------------2-0----------|
A|-------------------3-2---0--|
E|-----------------------4----|

            Am
e|----------5--|
B|-------5--5--|
G|-------7--5--|
D|-------6--7--|
A|-------7--7--|
E|----------5--|
Am G F   E

          E                           Am
1. Si supieras, que aún dentro de mi alma,
                      E                  Am
    Conservo aquél cariño que tuve para ti.
                      Dm                          Am
    Quién sabe si supieras, que nunca te he olvidado,
                      E                    Am
    Volviendo a tu pasado te acordarás de mi.

         Am                                        E
2. Los amigos ya no vienen, ni siquiera a visitarme,
                                          Am
    Nadie quiere consolarme, en mi aflicción.

                                                        Dm
    Desde el día que te fuiste siento angustias en mi pecho,
                              Am       E                  Am
    Decí, percanta, ¿qué has hecho      de mi pobre corazón?

   Am G F E
Suggest correction
Give kudos to tab author, rate the tab!
1 2 3 4 5
comments
print report bad tab
guest
You may want to rate the tab now too:
select rating
Wanna post a correction for this tab? Suggest correction