Oops, an error
Loading. Please wait.

Noche De Cuatro Lunas Tab

74 views 1 this week
no commentswrite comment
1 2 3 4 5
3 more votes to show rating
add to favorites
launch autoscroll
font size
0
reset
how to read this tab
guitar tuner
×
Best way to learn
"Noche De Cuatro Lunas"
Autoscroll
slow
fast
+/-
esc
set tempo
stop
e------7--------7--7h8--7------------------------------------------------------------------------------
b-----------8------------------v10------7---------------8----------------------------------------------
g--9----------9-------------------------------------------------------------8----------------------------
d------------------------------------7----------------7s9----------9s10----------------10----10s12--
a----------------------------------------------------------------------------------------------------------
e----------------------------------------------------------------------------------------------------------

e------------------------7----------7---7h8----7--------------------------------------------------------
b---10--------------------8------------------------v10----7-8-10--7-8---8s10---8-7---7h8---------
g-12------9-----7s9--------9---------------------------------------------------------------------9-----
d----------------------------------------------------------------------------------------------------------
a----------------------------------------------------------------------------------------------------------
e----------------------------------------------------------------------------------------------------------


SOLO:

e------7--------7--7h8--7-------------------------------------------------------------------------------
b-----------8------------------10--10------------------8p7h8------------------------------------------
g--9----------9--------------------------------------------------------------8-7--7-8-10-10---8-7----
d------------------------------------------------------------------9p7h9--------------------------------
a----------------------------------------------------------------------------------------------------------
e----------------------------------------------------------------------------------------------------------


e-----------------------------------------7------------7?7h8-7-------------10-12-14-14s15--------
b---7h8p7-----------10--------------------8------------------------10-10-----------------------------
g------------9--------------------7s9----------9---------------------------------------------------------
d----------------10-------10----------------------------------------------------------------------------
a----------------------------------------------------------------------------------------------------------
e----------------------------------------------------------------------------------------------------------

e---14----12-----10-----8-------7------8---------7------5-------3------------------------------------
b---------------------------------------------------------------------------------------------------------
g----------12-----11-----9-------7------9-----7-------5--------4---------------------------------------
d---------------------------------------------------------------------------------------------------------
a----------------------------------------------------------------------------------------------------------
e----------------------------------------------------------------------------------------------------------

h= hammer(martillo)
s= slide (deslisar)
v = vibrato
Suggest correction
Give kudos to tab author, rate the tab!
1 2 3 4 5
comments
print report bad tab
guest
You may want to rate the tab now too:
select rating
Wanna post a correction for this tab? Suggest correction