Oops, an error
Loading. Please wait.

5 Centavitos Tab

249 views 3 this week
no commentswrite comment
1 2 3 4 5
3 more votes to show rating
add to favorites
launch autoscroll
font size
0
reset
how to read this tab
guitar tuner
×
Best way to learn
"5 Centavitos"
Autoscroll
slow
fast
+/-
esc
set tempo
stop
El tab fue sacad0 de la cancion original.
El tempo es un poco rapido, te recomiendo escuchar la cancion.
Keep Rocking!!

      Q     Q     Q     Q        Q     Q     Q     Q
E||--------------------12----|--------------------------|
B||--10----12----13----------|--13----12----10----12----|
G||--------------------------|--------------------------|
D||--------------------------|--------------------------|
A||--------------------------|--------------------------|
E||--------------------------|--------------------------|


   Q     Q     Q     Q        Q     Q     Q     Q        Q
--------12----------------|--------------------12----|--12----|-------|
--13----------13----12----|--10----12----13----------|--------|-------|
--------------------------|--------------------------|--------|-------|
--------------------------|--------------------------|--------|-------|
--------------------------|--------------------------|--------|-------|
--------------------------|--------------------------|--------|-------|


   Q     Q     Q     Q        Q     Q     Q     Q
--------------------12----|--------------------------|
--------10----12----------|--12----10----------10----|
--12----------------------|--------------12----------|
--------------------------|--------------------------|
--------------------------|--------------------------|
--------------------------|--------------------------|


   Q     Q     Q     Q        Q     Q     Q     Q        Q
--------12----------------|--------------------12----|--12----|
--12----------12----10----|--------10----12----------|--------|
--------------------------|--12----------------------|--------|
--------------------------|--------------------------|--------|
--------------------------|--------------------------|--------|
--------------------------|--------------------------|--------|


   Q     Q     Q     Q        Q     Q     Q     Q
--------11----12----14----|--12----11----------11----|
--12----------------------|--------------12----------|
--------------------------|--------------------------|
--------------------------|--------------------------|
--------------------------|--------------------------|
--------------------------|--------------------------|


   Q     Q     Q     Q        Q     Q     Q     Q
--12----14----12----11----|--------11----12----14----|
--------------------------|--12----------------------|
--------------------------|--------------------------|
--------------------------|--------------------------|
--------------------------|--------------------------|
--------------------------|--------------------------|


   Q     Q     Q     Q        Q     Q     Q     Q
--14----------------------|--------------------------|
--------12----13----12----|--10----12----10----------|
--------------------------|--------------------12----|
--------------------------|--------------------------|
--------------------------|--------------------------|
--------------------------|--------------------------|


   Q     Q     Q     Q        Q    Q
--------------------------|-------------||
--10----------------------|-------------||
--------12----10----12----|--10----9----||
--------------------------|-------------||
--------------------------|-------------||
--------------------------|-------------||
Suggest correction
Give kudos to tab author, rate the tab!
1 2 3 4 5
comments
print report bad tab
guest
You may want to rate the tab now too:
select rating
Wanna post a correction for this tab? Suggest correction