Oops, an error
Loading. Please wait.

Arrepentida Tab

70 views 1 this week
1 commentread comment
1 2 3 4 5
2 more votes to show rating
add to favorites
launch autoscroll
font size
0
reset
how to read this tab
guitar tuner
×
Best way to learn
"Arrepentida"
Autoscroll
slow
fast
+/-
esc
set tempo
stop
Esta es sólo la interpretación del requinto,
tocado con guitarra clásica en base
a los acordes que ya están en colaboración con
Gabriel, pero en mi humilde opinión, creo que suenan
mejor en tono de Si menor, es decir, adelantando
la presente descripción y los acordes dos trastes
con el capo... pero es sólo mi opinión.

   G7      Am
1--7-5-7-5-8--5---|
2--6-6-6-6-6----5-|
3-----------------|
4-----------------|
5-----------------|
6-----------------|

   D7        G7
1--7-6-7--7/10--10-12--10--8--|
2--9-7-9--9/12--12-12--12-10--|
3-----------------------------|
4-----------------------------|
5-----------------------------|
6-----------------------------|

   G7               Am
1--7---5---7---5----8--5---|
2---6---6---6---6--------5-|
3----7---7---7---7---------|
4--------------------------|
5--------------------------|
6--------------------------|

   D7                G7       E
1--------------7-7-7-10-12--8-7--|
2--------9-9-9-------12-12-10-9--|
3--9-9-9-------------------------|
4--------------------------------|
5--------------------------------|
6--------------------------------|

¿Dudas? ¿Chismes? ¿Chistes? ¿Comentarios? ¿Sugerencias?
Ahí esta mi Usuario. Salu2
Suggest correction
Give kudos to tab author, rate the tab!
1 2 3 4 5
comments
print report bad tab
1 comment total.
0 reply
darvoxtupapi1 10 Feb 09, 2017 08:30 PM

buen tab :v

guest
You may want to rate the tab now too:
select rating
Wanna post a correction for this tab? Suggest correction