Oops, an error
Loading. Please wait.

Azabache Tab

85 views 1 this week
no commentswrite comment
1 2 3 4 5
3 more votes to show rating
add to favorites
launch autoscroll
font size
0
reset
how to read this tab
guitar tuner
Autoscroll
slow
fast
+/-
esc
set tempo
stop
Help us to improve Ultimate-Guitar.com Take our survey!
×
lA CANCION ESTA EN SI MENOR..
aQUI ENESENO A TOCAR EL PUNTEO


PARTE A
E------------------------77-5--------------55--------
B---------------4-5--555------8-7------5-7----8-7-5---
G-4-6-5-4-5-6-7-------------------7--7-------------6--

B-------5-7/8-8--7-5-7-5--
G---6-7------------------7


PARTE B
E------------------------77-5--------------55------------------------
B---------------4-5--555------8-7------5-7----8-7-5---7-5------------
G-4-6-5-4-5-6-7-------------------7--7--------------6-----7-6-3-4----


ESTE ES EL PUNTEO DE LA MITAD

E-------5-3-3---5-3-3---5-3------------1-------1-------6---------
B-3-5-7-7-5-5-7-7-5-5-7-7-5-7-5--2-3-5-3-7-5-2-3-7-5-2-7-7-5-3---
G-4-6-7-------7-------7-----7-6--2-4-6---7-6-2---7-6-2---7-6-4---

E-------2--------------------------2-------------------------
B---2-3---5-5-7-5-7-5-7-55-3--2-3-5--5-2-3-2---2-3-2-3-5-77---
G-4-------------------------------------4---------------------
FINALIZA CON LA PARTE B6 ^
Suggest correction
Give kudos to tab author, rate the tab!
1 2 3 4 5
comments
print report bad tab
guest
You may want to rate the tab now too:
select rating
Wanna post a correction for this tab? Suggest correction