Oops, an error
Loading. Please wait.

El Alma En Los Labios Tab

version 2
version 2

Whole song

139 views 6 this week
no commentswrite comment
1 2 3 4 5
3 more votes to show rating
add to favorites
launch autoscroll
font size
0
reset
how to read this tab
guitar tuner
×
Best way to learn
"El Alma En Los Labios"
Autoscroll
slow
fast
+/-
esc
set tempo
stop
el punteo esta en Re menor, en este link puedes ver como tocar el video


1)-10-10-13-12-10-5-5--5-6-5--I
2)-10-10-15-13-10-5-5--5-8-5--I
3)----------------------------I
4)----------------------------I

1)-10-10-13-12-10-5-5--5-6-5-----------------9-10-------I
2)-10-10-15-13-10-5-5--5-8-5--------10----10------------I
3)-------------------------------10----10---------------I
4)----------------------------12------------------------I
Suggest correction
Give kudos to tab author, rate the tab!
1 2 3 4 5
comments
print report bad tab
guest
You may want to rate the tab now too:
select rating
Wanna post a correction for this tab? Suggest correction