Oops, an error
Loading. Please wait.

Fatalidad Tab

version 2
version 2

Whole song

Interactive

177 views 1 this week
no commentswrite comment
1 2 3 4 5
3 more votes to show rating
add to favorites
launch autoscroll
font size
0
reset
how to read this tab
guitar tuner
×
Best way to learn
"Fatalidad"
Autoscroll
slow
fast
+/-
esc
set tempo
stop
El punteo esta en Re menor (Dm)


1----------------9-------------9-------------10---------------10--
2--10-9-10-11-10---10-8---8-10---10-8---10-8----10----------10----
3-----------------------9-------------9------------10----10-------
4-----------------------------------------------------12----------

1----------------9-------------9-------------10---------------10--
2--10-9-10-11-10---10-8---8-10---10-8---10-8----10----------10----
3-----------------------9-------------9------------10----10-------
4-----------------------------------------------------12----------


1-11-11-13-11---10-10-11-10---8--8--10--8--------------
2-13-13-13-13---11-11-11-11---10-10-10--10---11-10-11--
3------------------------------------------------------
4------------------------------------------------------

1-10----------10--13-12-12-10-10---------------------------------------10--
2----11----11--------------------13-13-11-10---------------------10-10-----
3-------12-----------------------------------12-10-9-------10-10-----------
4----------------------------------------------------12-12-----------------

para ver el video de como se toca el punteo este es el link de youtube
Suggest correction
Give kudos to tab author, rate the tab!
1 2 3 4 5
comments
print report bad tab
guest
You may want to rate the tab now too:
select rating
Wanna post a correction for this tab? Suggest correction