Oops, an error
Loading. Please wait.

Felicitaciones Tab

105 views 3 this week
no commentswrite comment
1 2 3 4 5
3 more votes to show rating
add to favorites
launch autoscroll
font size
0
reset
how to read this tab
guitar tuner
×
Best way to learn
"Felicitaciones"
Autoscroll
slow
fast
+/-
esc
set tempo
stop
correccion de la tablatura anterior:
intro:
             MI                  LA
1-0-1-0-1-0--4--0-1-0--4--0-1-0--5-----------
2---------------------------------5----------
3-----------------------------------5--------
  
         LA7                      RE
1-5-6-5-6-5-6--5-4-5--6-5-6--5-4-5--6-5-3-1-1
2--------------------------------------------
   
  LA         MI     LA           
1---5--3--1--0----------------------0--------
2--6--5--3--1---3--1--0-------------1--------
3--------------4--2---1-----------2----------
4------------------------2-2-0--2------------
5------------------------------3-------------
  
          MI                       LA
1---4--7---10--9--10--9--10--9--10---12--10--8--8
2--5--5--5-12--11-12--11-12--11-12---13--12-10--10
  
          MI                       LA
1---4--7---10--9--10--9--10--9--10---12--10--8--8
2--5--5--5-12--11-12--11-12--11-12---13--12-10--10
  
          LA7                     RE
1-5-6-5-6-5-6--5-4-5--6-5-6--5-4-5--6-5-3-1-1
2--------------------------------------------
     
        LA            MI          LA      
1-5-5--3-3--1-1--0--0--1-1---------0--------5--8
2------------------3-------3-3-2-3---3-----5---10
3--------------------------------------0--5-----9
        LA     MI            LA
En el silencio de esta noche hermosa, /bis
LA7                               RE    LA7
desde muy lejos vengo yo con mi cantar 
*                           RE
recordando tu santo en mi memoria 
    LA       MI          LA
y que gozes de mucha felicidad /bis

coro:
              DO      SOL7       DO 
perdona amiga mia perdona la impaciencia 
              DO      SOL7       DO   
que vengo a perturbar tus sueños tan profundos
*   MI             FA            MI   
ya sonaron las campanas son las doce feliz  
       LA            MI         LA
un  cumpleaños  y un dichoso amanecer/bis 
se repite toda la canciòn

forma de cambiar los bajos de La a LA7

1-------------------------------------
2-------------------------------------
3-------------------------------------
4--7-6-5------------------------------
5-------0-----------------------------
6-------------------------------------
tienen que escuchar la canciòn para poder sacar la
tablatura
Suggest correction
Give kudos to tab author, rate the tab!
1 2 3 4 5
comments
print report bad tab
guest
You may want to rate the tab now too:
select rating
Wanna post a correction for this tab? Suggest correction