Oops, an error
Loading. Please wait.

Licor Bendito Tab

77 views 1 this week
no commentswrite comment
1 2 3 4 5
3 more votes to show rating
add to favorites
launch autoscroll
font size
0
reset
how to read this tab
guitar tuner
Autoscroll
slow
fast
+/-
esc
set tempo
stop
Help us to improve Ultimate-Guitar.com Take our survey!
×
Parte I
                  Gm                                   Cm
1)----------------10----------------10----------7-8-10-13-11-13-11--
2)-8-7-8-10-8-7-8----8-7-8-10-8-7-8----8-7-8-10---------------------
3)------------------------------------------------------------------
4)------------------------------------------------------------------
           F                                             D
1)-13-11-8--------------------------------------------10-15-13-15-13-
2)---------11-8-10------8---------8-10------8------10----------------
3)-----------------10-9---10-9-10------10-9---10-9-------------------
4)-------------------------------------------------------------------


Parte II          Gm                                   Cm
1)----------------10----------------10----------7-8-10-13-11-13-11--
2)-8-7-8-10-8-7-8----8-7-8-10-8-7-8----8-7-8-10---------------------
3)------------------------------------------------------------------
4)------------------------------------------------------------------

                        Gm
1)-13-11-13-11-13-11-13-10---------10----10-----
2)-------------------------11-8-11----11----11--
3)----------------------------------------------
4)----------------------------------------------
   D                   Gm
1)-8---------8----8-------10-8--------------------------I
2)---10-7-10---10---10-11------11-10-8-7-8-10-8-10-8----I
3)------------------------------------------------------I
4)------------------------------------------------------I

ESte es el video del punteo.


Para mas punteos de Julio Jaramillo buscame cteran01 en youtube
Suggest correction
Give kudos to tab author, rate the tab!
1 2 3 4 5
comments
print report bad tab
guest
You may want to rate the tab now too:
select rating
Wanna post a correction for this tab? Suggest correction