Oops, an error
Loading. Please wait.

Migajas Tab

52 views 1 this week
no commentswrite comment
1 2 3 4 5
3 more votes to show rating
add to favorites
×
Save as Personal and add changes to this tab that will be seen only by you. Learn more ›
×
You can save this tab as Personal to edit and correct it or add notes. All changes will be seen only by you. Learn more »
save as personal
new!
launch autoscroll
font size
0
reset
how to read this tab
guitar tuner
Autoscroll
slow
fast
+/-
esc
set tempo
stop
bueno ps esta es mi primer transcripcion

esta cancion es para los que nunca an sido correspondidos
y ps esta  hubiera sabido que se pueden subir estas
cosas ya  hubiera subido un chingo.

solo saque el intro hay le buscan los acordes.

1|-----10-10-10-9-7----------------------12-10-9-7----------7-|
2|----------------------8---5-7-8---5-7-8-------------------7-|
3|----------------------------------------------------------7-|
4|----------------------------------------------------------9-|
5|----------------------------------------------------------9-|
6|----------------------------------------------------------7-|

1|-----7-7-9-10-9-7-10-9----6-7-9-10-10-9-7--------------------|
2|---------------------------------------------- --------------|
3|-------------------------------------------------------------|
4|-------------------------------------------------------------|
5|-------------------------------------------------------------|
6|-------------------------------------------------------------|

1|---6-7-9-10-9-7-6-7-----|
2|------------------------|
3|------------------------|
4|------------------------|
5|------------------------|
6|------------------------|

1|-----10-10-10-9-7----------------------12-12-10-9-7-----------7-|
2|----------------------8---5-7-8---5-7-8-----------------------7-|
3|--------------------------------------------------------------7-|
4|--------------------------------------------------------------9-|
5|--------------------------------------------------------------9-|
6|--------------------------------------------------------------7-|


1|-----7-7-9-10-9-7-10-9----6-7-9-10-10-9-7---------------------7--|
2|---------------------------------------------- -------------7----|
3|--------------------------------------------------------7--------|
4|----------------------------------------------------9------------|
5|-----------------------------------------------------------------|
6|-----------------------------------------------------------------|


si tienen dudas aqui esta mi correo por que el que aparece ya no lotengo

bueno porque habeces este progrma cambia las cosas (tarrega75@
Suggest correction
Give kudos to tab author, rate the tab!
1 2 3 4 5
comments
print report bad tab
guest
Wanna post a correction for this tab? Suggest correction