Oops, an error
Loading. Please wait.

No Me Toquen Ese Vals Tab

276 views 1 this week
no commentswrite comment
1 2 3 4 5
3 more votes to show rating
add to favorites
launch autoscroll
font size
0
reset
how to read this tab
guitar tuner
Autoscroll
slow
fast
+/-
esc
set tempo
stop
Help us to improve Ultimate-Guitar.com Take our survey!
×
este punteo esta en La menor, la cancion original creo q esta en Mi menor.
en este link puedes ver como tocar el punteo


1)----------------------------------------------------I
2)-5-5--5-----------------5--5-5--5-----------------5-I
3)--------7-5-4---------4-----------7-5-4---------5---I
4)--------------7-6---6-------------------6-7-6-7-----I
5)------------------7---------------------------------I

1)--5-5--5-----------------5--I
2)---------8-6-5---------6----I
3)---------------6-7-6-7------I


1)-5-----------------------------------------------5-5--I
2)---8-6-5------8-6-5-------6-5----------------5-5------I
3)---------7-5--------7-5-4-----7-4--------5-5----------I
4)----------------------------------6-7-7---------------I
Suggest correction
Give kudos to tab author, rate the tab!
1 2 3 4 5
comments
print report bad tab
guest
You may want to rate the tab now too:
select rating
Wanna post a correction for this tab? Suggest correction