Oops, an error
Loading. Please wait.

Odio En La Sangre Tab

91 views 1 this week
no commentswrite comment
1 2 3 4 5
3 more votes to show rating
add to favorites
launch autoscroll
font size
0
reset
how to read this tab
guitar tuner
×
Best way to learn
"Odio En La Sangre"
Autoscroll
slow
fast
+/-
esc
set tempo
stop
El Tio de Aca,
                              Bueno es el Intro,
                           Alguien que me Ayude con los acordes,
                              Estaria eternamente agradecido


 Intro

|-----------8-10--10p8-10------10p8-10-----10--10-10----|
|------8-10---------------------------------------------|
|-8-10--------------------------------------------------|
|-------------------------------------------------------|
|-------------------------------------------------------|
|-------------------------------------------------------|


|---------6-8--8p6-8-----8p6-8-----8--8-8----|
|-----6-8------------------------------------|
|-6-8----------------------------------------|
|--------------------------------------------|
|--------------------------------------------|
|--------------------------------------------|


|---------5-6--6p5-6----6p5-6----6--6-6----|
|-----5-6----------------------------------|
|-5-7--------------------------------------|
|------------------------------------------|
|------------------------------------------|
|------------------------------------------|


|---10-8-6---------------------------------------------|
|-8--------8-7-8-7-------------------------------------|
|------------------8-7-8----8p7-8-----8p7-8-----8-8----|
|------------------------------------------------------|
|------------------------------------------------------|
|------------------------------------------------------|


Escucha la Cancion
Para que te cordinees Mas.
Suggest correction
Give kudos to tab author, rate the tab!
1 2 3 4 5
comments
print report bad tab
guest
You may want to rate the tab now too:
select rating
Wanna post a correction for this tab? Suggest correction